Sound will begin in 5 seconds

waiting

01234567891011121314151617181920212223
E
B
G
D
A
E
B
0 1 2 3 4 5 6 7 8 9 10 11 12 13 14 15 16 17 18 19 20 21 22 23
Song Science #1: How Pros Use 6 Chords to Write Hit Songs
(/) Slide Up  (\) Slide Down  (h) Hammer On  (p) Pull Off  (b) Bend (r) Release (v) Vibrato

Stave 1:

G|----------------------------------------------------------------------
D|-----3--2--0--2------------------------3--2--0--2---------------------
A|----------------------------------------------------------------------
E|--0----------------0--1----3--1-----0----------------0--1----3--1/10--
B|---------------------------------3------------------------------------

Stave 2:

G|----------------------------------------------------------------------
D|----------------------------------------------------------------------
A|----------------------------------------------------------------------
E|----------------------------5--3-------------------------------10--8--
B|--3--5--5--5--3--5----5--5--------0--5--6--6--6----5--6--6--6---------

Stave 3:

G|---------------------------------------------------------------------------
D|---------------------------------------------------------------------------
A|---------------------------------------------------------------7-----------
E|----------------------------5--3----------------------------------8--7--8--
B|--3--5--5--5--3--5----5--5--------0--5--6--6--6----5--6--6--6--------------

Stave 4:

G|--------------------------------------------------------------------------
D|--------------------------------------------------------------------------
A|--------------------------------------------------------------------------
E|----------3-----------------------------------3------------------------7--
B|--3--5-------5--0----5--6----5--6--12\3--5-------5--0----5--6----5--6-----

Stave 5:

G|---------------------------------------------------0--------
D|------------------------------------------------------3-----
A|---------------------------------------------------------2--
E|------------------------------------------------------------
B|--3--5--5--5--3--5----6--5--0----5--6--6--6--5--6-----------

http://www.guitartabcreator.com
Guitar Tab Creator is intended to store guitar tab created through the tool. It currently does not support in-line text editing. Any text you place in here will be lost. If you need to comment on your tab, please use the "Tab Notes" section located below.