Sound will begin in 5 seconds

2-21-2017

Chords
01234567891011121314151617181920212223
E
B
G
D
A
E
B
0 1 2 3 4 5 6 7 8 9 10 11 12 13 14 15 16 17 18 19 20 21 22 23
(/) Slide Up  (\) Slide Down  (h) Hammer On  (p) Pull Off  (b) Bend (r) Release (v) Vibrato

Stave 1:

E|--5--5--3--3--5--5--
B|--6--6--3--3--5--5--
G|--7--7--4--4--5--5--
D|--7--7--5--5--5--5--
A|--5--5--5--5--7--7--
E|--------3--3--5--5--

Stave 2:

E|--3--8--5--3--8--5--8--10--12--10--8----------------8---------8-----------8--------------
B|--------------------------------------10--8------------8---------8-----------8-----------
G|---------------------------------------------10--9--------10--------9--7--------7--9--5--
D|-----------------------------------------------------------------------------------------
A|-----------------------------------------------------------------------------------------
E|-----------------------------------------------------------------------------------------

Stave 3:

E|------8--------8---------8-------------12--
B|---------8--------8---------8------12------
G|--10--------9--------10--------12----------
D|-------------------------------------------
A|-------------------------------------------
E|-------------------------------------------

http://www.guitartabcreator.com
Guitar Tab Creator is intended to store guitar tab created through the tool. It currently does not support in-line text editing. Any text you place in here will be lost. If you need to comment on your tab, please use the "Tab Notes" section located below.