Sound will begin in 5 seconds

Atheist - Enthralled In Essence Main Solo

Chords
01234567891011121314151617181920212223
E
B
G
D
A
E
B
0 1 2 3 4 5 6 7 8 9 10 11 12 13 14 15 16 17 18 19 20 21 22 23
Song Science #1: How Pros Use 6 Chords to Write Hit Songs
(/) Slide Up  (\) Slide Down  (h) Hammer On  (p) Pull Off  (b) Bend (r) Release (v) Vibrato

Stave 1:

E|--------------23--23--20--19--20------20--19--20------17--19------15--17------15--12----------------------
B|--19--20--22----------------------17--------------15----------13----------12----------15--12--------------
G|----------------------------------------------------------------------------------------------14--12------
D|------------------------------------------------------------------------------------------------------14--
A|----------------------------------------------------------------------------------------------------------
E|----------------------------------------------------------------------------------------------------------

Stave 2:

E|------------------------------------------------------------------------------------------------------------
B|----------------------------------------------------------------------------------------------------10------
G|--------------------------------------------------------------------------------------9--12--9--12------12--
D|--16b---16v--17--16--14----------------------------------------------9------9--12--9------------------------
A|-------------------------17--14----------------------10------10--13-----12----------------------------------
E|---------------------------------17--12--10--13--10------13-------------------------------------------------

Stave 3:

E|---------------------19--15------------------------------------------------------------------------------
B|--10------15b---/15----------12--------------------------------------------------------------------------
G|------12---------------------16------16--12--------------------------------------------------------------
D|-------------------------------------------------------------------------------------14--15--17--15--17--
A|---------------------------------14----------14--------------14--15--17--14--15--17----------------------
E|-------------------------------------------------14--15--17----------------------------------------------

Stave 4:

E|----------15p19----b23--20--19--20------20--19--20------17--19------15--17--------------------_----------23--------------
B|-----------------17-----------------17--------------15----------13----------------12--13--15--15--17--18------------------
G|--14--16--------------------------------------------------------------------------------------_--------------------------
D|----------------------------------------------------------------------------------------------_--------------------------
A|----------------------------------------------------------------------------------------------_--------------------------
E|----------------------------------------------------------------------------------------------_--------------------------

http://www.guitartabcreator.com
Guitar Tab Creator is intended to store guitar tab created through the tool. It currently does not support in-line text editing. Any text you place in here will be lost. If you need to comment on your tab, please use the "Tab Notes" section located below.