Sound will begin in 5 seconds

1

Chords
01234567891011121314151617181920212223
E
B
G
D
A
E
B
0 1 2 3 4 5 6 7 8 9 10 11 12 13 14 15 16 17 18 19 20 21 22 23
Song Science #1: How Pros Use 6 Chords to Write Hit Songs
(/) Slide Up  (\) Slide Down  (h) Hammer On  (p) Pull Off  (b) Bend (r) Release (v) Vibrato

Stave 1:

E|--------------4p0--------------0-----------0-----
B|--------5----------5--4-----------5-----------7--
G|-----6-----6----------------6-----------8--------
D|-------------------------7-----------9-----------
A|--4----------------------------------------------
E|-------------------------------------------------

Stave 2:

E|--------------0-----------------------0-----------------------0-----------------------0-----------
B|-----------------0-----0-----------------0-----0-----------------5-----5-----------------0-----0--
G|--------9-----------9-----------9-----------9-----------6-----------6-----------6-----------6-----
D|-----9-----9-----------------9-----9-----------------6-----6-----------------6-----6--------------
A|--7-----------------------6-----------------------4-----------------------2-----------------------
E|--------------------------------------------------------------------------------------------------

Stave 3:

E|--------------0-----------------------0-----------------------0-----------------------0-----------
B|--------0--------0-----0--------0--------0-----0-----------------0-----0-----------------0-----0--
G|-----2-----2--------2--------4-----4--------4-----------9-----------9-----------9-----------9-----
D|-----------------------------------------------------9-----9-----------------9-----9--------------
A|--0-----------------------2-----------------------7-----------------------7-----------------------
E|--------------------------------------------------------------------------------------------------

Stave 4:

E|------------------0------------------------------0--------------------------5--7--5-----
B|----------12---------12------12----------12---------12------12--------5--------------5--
G|------13------13---------13----------13------13---------13---------6-----6--------------
D|--14-----------------------------13-----------------------------7-----------------------
A|----------------------------------------------------------------------------------------
E|----------------------------------------------------------------------------------------

Stave 5:

E|--------------9-----7-----
B|--------7--------7-----7--
G|-----8-----8--------------
D|--9-----------------------
A|--------------------------
E|--------------------------

Stave 6:

E|------------------------------------------------------------------------------------------
B|------------------------------------------------------------------------------------------
G|--------7------------8-------------9--------------10--------------11--------------12------
D|-----8-----8------9-----9------10-----10------11------11------12------12------13------13--
A|--9-----------10-----------11-------------12--------------13--------------14--------------
E|------------------------------------------------------------------------------------------

Stave 7:

E|----------------------------------0--------------12--7--
B|----------13--------------14---------14----------12--7--
G|------14------14------15------15---------15------12--7--
D|--15--------------16-------------------------16---------
A|--------------------------------------------------------
E|--------------------------------------------------------

http://www.guitartabcreator.com
Guitar Tab Creator is intended to store guitar tab created through the tool. It currently does not support in-line text editing. Any text you place in here will be lost. If you need to comment on your tab, please use the "Tab Notes" section located below.