Sound will begin in 5 seconds

The Good Life

Chords
01234567891011121314151617181920212223
E
B
G
D
A
E
B
0 1 2 3 4 5 6 7 8 9 10 11 12 13 14 15 16 17 18 19 20 21 22 23
Song Science #1: How Pros Use 6 Chords to Write Hit Songs
(/) Slide Up  (\) Slide Down  (h) Hammer On  (p) Pull Off  (b) Bend (r) Release (v) Vibrato

Stave 1:

E|-6-6-6-----6-6-|-6-6-6----4-4-|-6-6-6---6-6-|-6-6-6---6-6-|-
B|-7-7-7-----9-9-|-7-7-7----4-4-|-7-7-7---9-9-|-7-7-7---6-6-|-
G|-6-6-6-----8-8-|-6-6-6----5-5-|-6-6-6---8-8-|-6-6-6---7-7-|-
D|-8-6-8-----6-6-|-8-6-8----4-4-|-8-6-8---6-6-|-8-6-8---6-6-|-
A|-6-8-9-----6-6-|-6-8-9----6-6-|-6-8-9---6-6-|-6-8-9---8-8-|-
E|-6-6-6-----6-6-|-6-6-6----4-4-|-6-6-6---6-6-|-6-6-6---6-6-|-

Stave 2:

E|--6-6-6--8---6--|-
B|--7-7-7--9---6--|-
G|--6-6-6--8---7--|-
D|--8-6-8--10--6--|-
A|--6-8-9--8---8--|-
E|--6-6-6--8---6--|-

Stave 3:

E|--13-11-13---9-13--11-|-
B|----------------------|-
G|----------------------|-
D|----------------------|-
A|----------------------|-
E|----------------------|-

http://www.guitartabcreator.com
Guitar Tab Creator is intended to store guitar tab created through the tool. It currently does not support in-line text editing. Any text you place in here will be lost. If you need to comment on your tab, please use the "Tab Notes" section located below.