Sound will begin in 5 seconds

Ghetto Superstar

Chords
01234567891011121314151617181920212223
E
B
G
D
A
E
B
0 1 2 3 4 5 6 7 8 9 10 11 12 13 14 15 16 17 18 19 20 21 22 23
Song Science #1: How Pros Use 6 Chords to Write Hit Songs
(/) Slide Up  (\) Slide Down  (h) Hammer On  (p) Pull Off  (b) Bend (r) Release (v) Vibrato

Stave 1:

E|------------|----------------|----------------|----------------|-
B|------------|----------------|----------------|----------------|-
G|-6/6--6-6/6-|----------------|----------------|----------------|-
D|-7-7--7-7-7-|----------------|-4-4--4-4-4-4-4-|----------------|-
A|-7-9--7-7-9-|-4-4--4-4-4-4-4-|-0-0--2-2-2-0-2-|-6-6--6-6-6-6-6-|-
E|------------|-0-0--2-2-2-0-2-|----------------|-2-2--4-4-4-2-4-|-

Stave 2:

E|---------------|----------------|----------------|---------|-
B|---------------|----------------|----------------|---------|-
G|---------------|----------------|----------------|---------|-
D|-6-6--6-6-6-6-6-|----------------|-4-4--4-4-4-4-4-|-8-8-8-8-|-
A|-2-2--4-4-4-2-4-|-4-4--4-4-4-4-4-|-0-0--2-2-2-0-2-|-6-6-6-6-|-
E|---------------|-0-0--2-2-2-0-2-|----------------|---------|-

Stave 3:

E|--------|-----------------|---------|---------|--------------------
B|--------|-----------------|---------|---------|--------------------
G|--------|-----------------|---------|---------|--------------------
D|-6-6-6-6-|-4-4-4-4-4-4-4-4-|---------|-6-6-6-6-|--------------------
A|-4-4-4-4-|-2-2-2-2-2-2-2-2-|-6-6-6-6-|-4-4-4-4-|-4-4--4-4--4-4--4-4-
E|--------|-----------------|-4-4-4-4-|---------|-0/2--0/2--0/2--0/2-

Stave 4:

E|-----------------|------------------|-
B|-----------------|------------------|-
G|---------------6-|--------------6-6-|-
D|---------------7-|--------------7-7-|-
A|--7h9-9-9-7-9----|-7h9-9-9-7-9------|-
E|-----------------|------------------|-

Stave 5:

E|-_----------------------------------------------|----------12---------------|-
B|-15-14-14-14-15-14-14-14-15-14-14-14-15-14-14-14-|-14----12----14---12-10-12-|-
G|-_----------------------------------------------|---------------------------|-
D|-_----------------------------------------------|---------------------------|-
A|-_----------------------------------------------|---------------------------|-
E|-_----------------------------------------------|---------------------------|-

http://www.guitartabcreator.com
Guitar Tab Creator is intended to store guitar tab created through the tool. It currently does not support in-line text editing. Any text you place in here will be lost. If you need to comment on your tab, please use the "Tab Notes" section located below.