Sound will begin in 5 seconds

VROOOM VROOOM

Chords
01234567891011121314151617181920212223
E
B
G
D
A
E
B
0 1 2 3 4 5 6 7 8 9 10 11 12 13 14 15 16 17 18 19 20 21 22 23
Song Science #1: How Pros Use 6 Chords to Write Hit Songs
(/) Slide Up  (\) Slide Down  (h) Hammer On  (p) Pull Off  (b) Bend (r) Release (v) Vibrato

Stave 1:

E|--------------------------------------------------------
B|--------------------------------------------------------
G|--------4-----4--5--------------------------------------
D|-----6-----6--------------1-----1--2--------5-----5--6--
A|--4--------------------3-----3-----------7-----7--------
E|--------------------1-----------------5-----------------

Stave 2:

E|--------------------------------------------------------
B|--------------------------------------------------------
G|--------------------------------------------4-----4--5--
D|--------1-----1--2--------5-----5--6-----6-----6--------
A|-----3-----3-----------7-----7--------4-----------------
E|--1-----------------5-----------------------------------

Stave 3:

E|-------------------------------------------------------------
B|-------------------------------------------------------------
G|------------------------------------------------8------8--9--
D|--------5-----5--6---------9------9--10-----10-----10--------
A|-----7-----7-----------11-----11---------8-------------------
E|--5-----------------9----------------------------------------

Stave 4:

E|-----
B|--5--
G|--5--
D|-----
A|-----
E|-----

Stave 5:

E|--------------------------------------------------
B|--20--19--19--18--18--17--19--18--18--17--17--16--
G|--20--19--19--18--18--17--19--18--18--17--17--16--
D|--------------------------------------------------
A|--------------------------------------------------
E|--------------------------------------------------

Stave 6:

E|-----------------------------------------------
B|--15--14--14--13--13--12--11--10--10--9--9--8--
G|--15--14--14--13--13--12--11--10--10--9--9--8--
D|-----------------------------------------------
A|-----------------------------------------------
E|-----------------------------------------------

Stave 7:

E|--------------------------------------
B|--7--6--6--5--5--4--3--2--2--1--1--0--
G|--7--6--6--5--5--4--3--2--2--1--1--0--
D|--------------------------------------
A|--------------------------------------
E|--------------------------------------

Stave 8:

E|--------------------------------------
B|--------------------------------------
G|--3--2--2--1--1--0--------------------
D|--4--3--3--2--2--1--4--3--3--2--2--1--
A|--------------------5--4--4--3--3--2--
E|--------------------------------------

http://www.guitartabcreator.com
Guitar Tab Creator is intended to store guitar tab created through the tool. It currently does not support in-line text editing. Any text you place in here will be lost. If you need to comment on your tab, please use the "Tab Notes" section located below.