Sound will begin in 5 seconds

The Bleeding (Guitar Composition)

Chords
01234567891011121314151617181920212223
E
B
G
D
A
E
B
0 1 2 3 4 5 6 7 8 9 10 11 12 13 14 15 16 17 18 19 20 21 22 23
Song Science #1: How Pros Use 6 Chords to Write Hit Songs
(/) Slide Up  (\) Slide Down  (h) Hammer On  (p) Pull Off  (b) Bend (r) Release (v) Vibrato

Stave 1:

E|------------------------------------------------------------------------------------------------
B|------------------------------------------------------------------------------------------------
G|--12----------13----------12----------10--10h12--12----------13----------12----------10--10h12--
D|------10--10------10--10------10--10-----------------10--10------10--10------10--10-------------
A|------------------------------------------------------------------------------------------------
D|------------------------------------------------------------------------------------------------

Stave 2:

E|--------------------------------------------------------------------------
B|--------------------------------------------------------------------------
G|----------8--------8--------8-----8--------10--------10--------10-----10--
D|----6--6-----6--6-----6--6-----6-----8--8------8--8------8--8------8------
A|--------------------------------------------------------------------------
D|--------------------------------------------------------------------------

Stave 3:

E|----------------------------------------------------------------------
B|----------------------------------------------------------------------
G|--------8--8h10--------8--8h10--------8--8h10--------8--8h10p8h10--8--
D|--8h10-----------8h10-----------8h10-----------8h10-------------------
A|----------------------------------------------------------------------
D|----------------------------------------------------------------------

Stave 4:

E|----------------------------------------------------------------------------
B|----------------------------------------------------------------------------
G|--------8--8h10--------8--8--10-----------10--8--7v--7--8--10--8--7---------
D|--8h10-----------8h10------------8--9--8-----------------------------8h10v--
A|----------------------------------------------------------------------------
D|----------------------------------------------------------------------------

Stave 5:

E|----------------------------------------------------------------------------------
B|----------------------------------------------------------------------------------
G|----------------------------------------------------------------------------------
D|--8h10--10--10--10--10--8h10--10--10--10--6--6--6--6--6--6--8--8--8--8--8--8h10--
A|--8-10--10--10--10--10--8-10--10--10--10--6--6--6--6--6--6--8--8--8--8--8--8-10--
D|--8-10--10--10--10--10--8-10--10--10--10--6--6--6--6--6--6--8--8--8--8--8--8-10--

Stave 6:

E|--15v--15--13--11--10------------------------------------15v--15--13--11--10/18--15--18--20--
B|-----------------------11--11--11/13-------------11--13--------------------------------------
G|--------------------------------------12--12\10----------------------------------------------
D|---------------------------------------------------------------------------------------------
A|---------------------------------------------------------------------------------------------
D|---------------------------------------------------------------------------------------------

Stave 7:

E|--20--20--18--18v--18--18h20---------
B|------------------------------20\12--
G|-------------------------------------
D|-------------------------------------
A|-------------------------------------
D|-------------------------------------

http://www.guitartabcreator.com
Guitar Tab Creator is intended to store guitar tab created through the tool. It currently does not support in-line text editing. Any text you place in here will be lost. If you need to comment on your tab, please use the "Tab Notes" section located below.