Sound will begin in 5 seconds

Song2

01234567891011121314151617181920212223
E
B
G
D
A
E
B
0 1 2 3 4 5 6 7 8 9 10 11 12 13 14 15 16 17 18 19 20 21 22 23
Song Science #1: How Pros Use 6 Chords to Write Hit Songs
(/) Slide Up  (\) Slide Down  (h) Hammer On  (p) Pull Off  (b) Bend (r) Release (v) Vibrato

Stave 1:

E|---------------------------------------------------------------------------------
B|---------------------------------------------------------------------------------
G|---------------------------------------------------------------------------------
D|---------------------------------------------------------------------------------
A|-----11------12-----11--------8-----9-----8-----5-----5-----6-----5-----3-----2--
E|--9------10------9------9--6-----7-----6-----3-----3-----4-----3-----1-----0-----

Stave 2:

E|--------------------------------------
B|--------------------------------------
G|--------------------------------------
D|-----6-----7-----6-----3-----4-----3--
A|--4-----5-----4-----1-----2-----1-----
E|--------------------------------------

Stave 3:

E|---------------
B|---------------
G|---------------
D|--------6------
A|-----4-----11--
E|--9------------

Stave 4:

E|--------------------------------
B|-----------------------------8--
G|------------12-----------11-----
D|---------8------------9---------
A|-----10------------7------------
E|--3-------------0---------------

Stave 5:

E|------------0------------0----------------0--
B|-----8----------------8----------------8-----
G|--------11--------11---------------11--------
D|--------------------------------0------------
A|---------------------------------------------
E|--0------------8------------10---------------

Stave 6:

E|----------------------------------------------------------
B|--------------8---------------------8------------------12\
G|----------11-----11-------------11-----11----------11-----
D|------12-------------12-----12-----------------12---------
A|----------------------------------------------------------
E|--12---------------------8-----------------10-------------

Stave 7:

E|-------------------
B|----------------8--
G|------------11-----
D|---------9---------
A|-----10------------
E|--0----------------

http://www.guitartabcreator.com
Guitar Tab Creator is intended to store guitar tab created through the tool. It currently does not support in-line text editing. Any text you place in here will be lost. If you need to comment on your tab, please use the "Tab Notes" section located below.