Sound will begin in 5 seconds

Blues Stay Away From Me

01234567891011121314151617181920212223
E
B
G
D
A
E
B
0 1 2 3 4 5 6 7 8 9 10 11 12 13 14 15 16 17 18 19 20 21 22 23
Song Science #1: How Pros Use 6 Chords to Write Hit Songs
(/) Slide Up  (\) Slide Down  (h) Hammer On  (p) Pull Off  (b) Bend (r) Release (v) Vibrato

Stave 1:

E|----------------------------------------------------------------------
B|--5--2--3--2--5--3--2--7--3--3--3--5--3--2--5--5--3--3--3--3--5--3--2--
G|--6--2--4--2--6--4--2--7--2--4--2--5--4--2--6--6--4--2--4--2--5--4--2--
D|----------------------------------------------------------------------
A|----------------------------------------------------------------------
E|----------------------------------------------------------------------

Stave 2:

E|-------------4--5--4--5--8--7--5----------------------------------------5--5--4------------------------
B|----5--5--7--4--5--4--5--8--7--5--7--5----3--3--3--7--7--8--7--8--7--2--7--7--5------------------------
G|----6--6--7-----------------------7--5h6--2--2--4--7--7--9--7--9--7--2-----------------2--4b4r2-----2--
D|---------------------------------------------------------------------------------2--4------------4-----
A|-------------------------------------------------------------------------------------------------------
E|-------------------------------------------------------------------------------------------------------

http://www.guitartabcreator.com
Guitar Tab Creator is intended to store guitar tab created through the tool. It currently does not support in-line text editing. Any text you place in here will be lost. If you need to comment on your tab, please use the "Tab Notes" section located below.