Sound will begin in 5 seconds

Time - Pink Floyd

Chords
01234567891011121314151617181920212223
E
B
G
D
A
E
B
0 1 2 3 4 5 6 7 8 9 10 11 12 13 14 15 16 17 18 19 20 21 22 23
Song Science #1: How Pros Use 6 Chords to Write Hit Songs
(/) Slide Up  (\) Slide Down  (h) Hammer On  (p) Pull Off  (b) Bend (r) Release (v) Vibrato

Stave 1:

E|-----------------------------------------------|------------------------5b6--------
B|-----------------------------------------------|-------5--5--5h7p5h7p5-------7-----
G|-----4b6r4b6-----4b6r4b6--2--4b6--4------------|--4/6------------------------------
D|--4----------------------------------4b2r4--4--|--------------------------------4--
A|-----------------------------------------------|-----------------------------------
E|-----------------------------------------------|-----------------------------------

Stave 2:

E|----------------|----9--9b10r9----------------------------------|-------------------------17-------------
B|----------------|---------------10b12r10--10--9--9b10r9---------|-----------14--17b19--17b19--17b19--17--
G|--4b6r4p2--4b6--|--4/9-----------------------------------9b11v--|-------14-------------------------------
D|----------------|-----------------------------------------------|--/16-----------------------------------
A|----------------|-----------------------------------------------|----------------------------------------
E|----------------|-----------------------------------------------|----------------------------------------

Stave 3:

E|---------|---------------------------------------------------------17b19r17--17------------------------
B|---------|---------------------------17--17--------------------14----------------17b19--17--17---------
G|--16b18--|--18--18b19r16--16b18r16v----------16b18r16--14---------------------------------------16p14--
D|---------|-------------------------------------------------16------------------------------------------
A|---------|---------------------------------------------------------------------------------------------
E|---------|---------------------------------------------------------------------------------------------

Stave 4:

E|----------------|------19b21r19--21r19--16--------------------------------------|------------------------
B|----------------|--17-----------------------17------17/19--19--17h19p17--17\14--|----------7--10/12--10--
G|--16p14--16b18--|-------------------------------16------------------------------|-----2/7----------------
D|----------------|---------------------------------------------------------------|--4---------------------
A|----------------|---------------------------------------------------------------|------------------------
E|----------------|---------------------------------------------------------------|------------------------

Stave 5:

E|-----------------------------------------|-----------------------------------------------
B|--9--10--9\5--7/9--9--7\5/7--5\2/5--2----|-----------------------------------------------
G|------------------------------------4b6--|--4b7--4b6--4--2--4b6--2--4--2-------4---------
D|-----------------------------------------|--------------------------------4/6-----6\4p2--
A|-----------------------------------------|-----------------------------------------------
E|-----------------------------------------|-----------------------------------------------

http://www.guitartabcreator.com
Guitar Tab Creator is intended to store guitar tab created through the tool. It currently does not support in-line text editing. Any text you place in here will be lost. If you need to comment on your tab, please use the "Tab Notes" section located below.