Escala Maior

Chords

01234567891011121314151617181920212223
E
B
G
D
A
E
B
0 1 2 3 4 5 6 7 8 9 10 11 12 13 14 15 16 17 18 19 20 21 22 23
(/) Slide Up  (\) Slide Down  (h) Hammer On  (p) Pull Off  (b) Bend (r) Release (v) Vibrato

Maior 7° Corda

E|--------------------------------------7-9-11-12-11-9-7--------------------------------------
B|-------------------------------7-9-10------------------10-9-7-------------------------------
G|-------------------------6-8-9--------------------------------9-8-6-------------------------
D|-------------------6-7-9--------------------------------------------9-7-6-------------------
A|-------------6-7-9--------------------------------------------------------9-7-6-------------
E|-------5-7-9--------------------------------------------------------------------9-7-5-------
B|-5-7-9--------------------------------------------------------------------------------9-7-5-

Maior 6° Corda:

E|--------------------------------7-9-10-9-7---------------------------------
B|-------------------------7-9-10------------10-9-7--------------------------
G|-------------------6-7-9--------------------------9-7-6--------------------
D|-------------6-7-9--------------------------------------9-7-6--------------
A|-------5-7-9--------------------------------------------------9-7-5--------
E|-5-7-9--------------------------------------------------------------9-7----
B|---------------------------------------------------------------------------

Maior 5° Corda:

E|--------------------------7-9-10-9-7--------------------------
B|-------------------7-8-10------------10-8-7-------------------
G|-------------6-7-9--------------------------9-7-6-------------
D|-------5-7-9--------------------------------------9-7-5-------
A|-5-7-9--------------------------------------------------9-7-5-
E|--------------------------------------------------------------
B|--------------------------------------------------------------

Maior 4° Corda:

E|--------------------7-8-10-8-7--------------------
B|-------------7-8-10------------10-8-7-------------
G|-------5-7-9--------------------------9-7-5-------
D|-5-7-9--------------------------------------9-7-5-
A|--------------------------------------------------
E|--------------------------------------------------
B|--------------------------------------------------

							http://www.guitartabcreator.com
Instruments
{"strings":[[[".",".",".",".",".",".",".",".",".",".",".",".",".",".",".",".",".",".",7,9,11,12,11,9,7,".",".",".",".",".",".",".",".",".",".",".",".",".",".",".",".",".","."],[".",".",".",".",".",".",".",".",".",".",".",".",".",".",".",7,9,10,".",".",".",".",".",".",".",10,9,7,".",".",".",".",".",".",".",".",".",".",".",".",".",".","."],[".",".",".",".",".",".",".",".",".",".",".",".",6,8,9,".",".",".",".",".",".",".",".",".",".",".",".",".",9,8,6,".",".",".",".",".",".",".",".",".",".",".","."],[".",".",".",".",".",".",".",".",".",6,7,9,".",".",".",".",".",".",".",".",".",".",".",".",".",".",".",".",".",".",".",9,7,6,".",".",".",".",".",".",".",".","."],[".",".",".",".",".",".",6,7,9,".",".",".",".",".",".",".",".",".",".",".",".",".",".",".",".",".",".",".",".",".",".",".",".",".",9,7,6,".",".",".",".",".","."],[".",".",".",5,7,9,".",".",".",".",".",".",".",".",".",".",".",".",".",".",".",".",".",".",".",".",".",".",".",".",".",".",".",".",".",".",".",9,7,5,".",".","."],[5,7,9,".",".",".",".",".",".",".",".",".",".",".",".",".",".",".",".",".",".",".",".",".",".",".",".",".",".",".",".",".",".",".",".",".",".",".",".",".",9,7,5]],[[".",".",".",".",".",".",".",".",".",".",".",".",".",".",".",7,9,10,9,7,".",".",".",".",".",".",".",".",".",".",".",".",".",".","_"],[".",".",".",".",".",".",".",".",".",".",".",".",7,9,10,".",".",".",".",".",10,9,7,".",".",".",".",".",".",".",".",".",".",".","_"],[".",".",".",".",".",".",".",".",".",6,7,9,".",".",".",".",".",".",".",".",".",".",".",9,7,6,".",".",".",".",".",".",".",".","_"],[".",".",".",".",".",".",6,7,9,".",".",".",".",".",".",".",".",".",".",".",".",".",".",".",".",".",9,7,6,".",".",".",".",".","_"],[".",".",".",5,7,9,".",".",".",".",".",".",".",".",".",".",".",".",".",".",".",".",".",".",".",".",".",".",".",9,7,5,".",".","_"],[5,7,9,".",".",".",".",".",".",".",".",".",".",".",".",".",".",".",".",".",".",".",".",".",".",".",".",".",".",".",".",".",9,7,"_"],[".",".",".",".",".",".",".",".",".",".",".",".",".",".",".",".",".",".",".",".",".",".",".",".",".",".",".",".",".",".",".",".",".",".","_"]],[[".",".",".",".",".",".",".",".",".",".",".",".",7,9,10,9,7,".",".",".",".",".",".",".",".",".",".",".","."],[".",".",".",".",".",".",".",".",".",7,8,10,".",".",".",".",".",10,8,7,".",".",".",".",".",".",".",".","."],[".",".",".",".",".",".",6,7,9,".",".",".",".",".",".",".",".",".",".",".",9,7,6,".",".",".",".",".","."],[".",".",".",5,7,9,".",".",".",".",".",".",".",".",".",".",".",".",".",".",".",".",".",9,7,5,".",".","."],[5,7,9,".",".",".",".",".",".",".",".",".",".",".",".",".",".",".",".",".",".",".",".",".",".",".",9,7,5],[".",".",".",".",".",".",".",".",".",".",".",".",".",".",".",".",".",".",".",".",".",".",".",".",".",".",".",".","."],[".",".",".",".",".",".",".",".",".",".",".",".",".",".",".",".",".",".",".",".",".",".",".",".",".",".",".",".","."]],[[".",".",".",".",".",".",".",".",".",7,8,10,8,7,".",".",".",".",".",".",".",".","."],[".",".",".",".",".",".",7,8,10,".",".",".",".",".",10,8,7,".",".",".",".",".","."],[".",".",".",5,7,9,".",".",".",".",".",".",".",".",".",".",".",9,7,5,".",".","."],[5,7,9,".",".",".",".",".",".",".",".",".",".",".",".",".",".",".",".",".",9,7,5],[".",".",".",".",".",".",".",".",".",".",".",".",".",".",".",".",".",".",".",".",".",".","."],[".",".",".",".",".",".",".",".",".",".",".",".",".",".",".",".",".",".",".",".",".",".","."],[".",".",".",".",".",".",".",".",".",".",".",".",".",".",".",".",".",".",".",".",".",".","."]]],"numberofstrings":7,"notes":["E","B","G","D","A","E","B"],"capo":0,"stringnotes":["E3","B2","G2","D2","A1","E1","B0"],"comments":["Maior 7° Corda","Maior 6° Corda:","Maior 5° Corda:","Maior 4° Corda:"],"timing":[[null,null,null,null,null,null,null,null,null,null,null,null,null,null,null,null,null,null,null,null,null,null,null,null,null,null,null,null,null,null,null,null,null,null,null,null,null,null,null,null,null,null,null],["W","W","W","W","W","W","W","W","W","W","W","W","W","W","W","W","W","W","W","W","W","W","W","W","W","W","W","W","W","W","W","W","W","W","W"],["W","W","W","W","W","W","W","W","W","W","W","W","W","W","W","W","W","W","W","W","W","W","W","W","W","W","W","W","W"],["W","W","W","W","W","W","W","W","W","W","W","W","W","W","W","W","W","W","W","W","W","W","W"]],"timingvisible":false,"tabcounter":23,"stave":3,"totalstaves":4,"instrument":"7guitar","selectedtuning":"7guitar","version":"13"}

Member for

5 months 4 weeks
Submitted by thiagomfranco on Mon, 2020-04-27 08:01