Sound will begin in 5 seconds

So Do I End Chordal Tapping

01234567891011121314151617181920212223
E
B
G
D
A
E
B
0 1 2 3 4 5 6 7 8 9 10 11 12 13 14 15 16 17 18 19 20 21 22 23
Song Science #1: How Pros Use 6 Chords to Write Hit Songs
(/) Slide Up  (\) Slide Down  (h) Hammer On  (p) Pull Off  (b) Bend (r) Release (v) Vibrato

Stave 1:

E|--------------------------------------------
B|----------------10--14--15--14--10--14--17--
G|------------11------------------------------
D|--------12----------------------------------
A|-----9--------------------------------------
E|--9-----------------------------------------

Stave 2:

E|----------------------------------------
B|--------------7--14--15--14--7--14--12--
G|-----------9----------------------------
D|--------9-------------------------------
A|-----7----------------------------------
E|--7-------------------------------------

Stave 3:

E|----------------------------------------
B|--------------5--12--14--12--5--12--10--
G|-----------7----------------------------
D|--------7-------------------------------
A|-----5----------------------------------
E|--5-------------------------------------

Stave 4:

E|----------------------------------------
B|--------------7--14--15--14--7--14--15--
G|-----------9----------------------------
D|--------9-------------------------------
A|-----7----------------------------------
E|--7-------------------------------------

http://www.guitartabcreator.com
Guitar Tab Creator is intended to store guitar tab created through the tool. It currently does not support in-line text editing. Any text you place in here will be lost. If you need to comment on your tab, please use the "Tab Notes" section located below.