Sound will begin in 5 seconds

Rain

Chords
01234567891011121314151617181920212223
E
B
G
D
A
E
B
0 1 2 3 4 5 6 7 8 9 10 11 12 13 14 15 16 17 18 19 20 21 22 23
Song Science #1: How Pros Use 6 Chords to Write Hit Songs
(/) Slide Up  (\) Slide Down  (h) Hammer On  (p) Pull Off  (b) Bend (r) Release (v) Vibrato

Stave 1:

E|--0--0-----
B|--1--0-----
G|--2--0--5--
D|--2--2--3--
A|--0--3--3--
E|--------3--

Stave 2:

E|-------------------5--
B|----------------------
G|--9--12--5--9--12--5--
D|--7--10--3--7--10--3--
A|--7--10--3--7--10--3--
E|--7--10--3--7--10--3--

Stave 3:

E|--------
B|--------
G|--2-----
D|--2--3--
A|--0--3--
E|-----3--

Stave 4:

E|----------12----------12--15--
B|------13----------13----------
G|--14----------14--------------
D|------------------------------
A|------------------------------
E|------------------------------

Stave 5:

E|--------------------------------------------------------------------------------------------------------------------------------------------------------8--------
B|--8--------8--------8-----10--------10--------10-----5--------5--------5-----5--------5--------5-----8--------8--------8-----10--------10--------10--------------
G|-----9--9-----9--9-----9------9--9------9--9------9-----5--5-----5--5-----5-----5--5-----5--5-----5-----9--9-----9--9-----9------9--9------9--9------9-----5--5--
D|-----------------------------------------------------------------------------------------------------------------------------------------------------------------
A|-----------------------------------------------------------------------------------------------------------------------------------------------------------------
E|-----------------------------------------------------------------------------------------------------------------------------------------------------------------

Stave 6:

E|--------------
B|--------1--3--
G|--2--0--------
D|--------------
A|--------------
E|--------------

http://www.guitartabcreator.com
Guitar Tab Creator is intended to store guitar tab created through the tool. It currently does not support in-line text editing. Any text you place in here will be lost. If you need to comment on your tab, please use the "Tab Notes" section located below.