Sound will begin in 5 seconds

Ronny Jordan - After Hours (Main Solo)

01234567891011121314151617181920212223
E
B
G
D
A
E
B
0 1 2 3 4 5 6 7 8 9 10 11 12 13 14 15 16 17 18 19 20 21 22 23
Song Science #1: How Pros Use 6 Chords to Write Hit Songs
(/) Slide Up  (\) Slide Down  (h) Hammer On  (p) Pull Off  (b) Bend (r) Release (v) Vibrato

Stave 1:

E|-------------------------------------------------------
B|-------------------------------------------------------
G|--13---------------------------------------------------
D|------12/13--11--13------9--11--11/13----------13--11--
A|---------------------11----------------11--11----------
E|-------------------------------------------------------

Stave 2:

E|-------------------------------------------------------
B|-------------------------------------------------------
G|--13---------------------------------------------------
D|------12/13--11--13------9--11--11/13----------13--11--
A|---------------------11----------------11--14----------
E|-------------------------------------------------------

Stave 3:

E|----------------------------------------------------------------
B|----------------------------------------10----------------------
G|------13--13--9------11-------------11------11---------9--6-----
D|--11-------------11------12--9--12--------------12--9--------7--
A|----------------------------------------------------------------
E|----------------------------------------------------------------

Stave 4:

E|-------------------------------------------------------
B|-------------------------------------------------------
G|--13---------------------------------------------------
D|------12/13--11--13------9--11--11/13----------13--11--
A|---------------------11----------------11--14----------
E|-------------------------------------------------------

Stave 5:

E|------------------------------------------------------------
B|------------------------------------------------------------
G|---------9-/11------9-/11-----------------------------------
D|------9--11-13------11-13------9--11--11/13------9--13--11--
A|--11------------11---------11----------------11-------------
E|------------------------------------------------------------

Stave 6:

E|------------------------------------------------------------
B|------------------------------------------------------------
G|---------9--11------9-/11-----------------------------------
D|------9--11/13------11-13------9--11--11/13------9--13--11--
A|--11------------11---------11----------------11-------------
E|------------------------------------------------------------

Stave 7:

E|------------------------------------------
B|------------------------------------------
G|----------------11/13h14p13/11--8-----11--
D|--9--11--13/14---------------------9------
A|------------------------------------------
E|------------------------------------------

Stave 8:

E|-------------------------------------------------------
B|-------------------------------------------------------
G|---------------------------9-----------------9---------
D|--16/11--9-------------11-----11---------11-----11/13--
A|------------10------9-------------12--9----------------
E|----------------12-------------------------------------

Stave 9:

E|-----------------------------------------------------
B|-----------------------------------------------------
G|---------9-/11-----------------9-/11-----------------
D|---------11-13--9--11--9h11p9--11-13-----------------
A|--13p11-------------------------------11--11--9--11--
E|-----------------------------------------------------

Stave 10:

E|---------------------------------------------------------------------
B|---------------------------------------------------------------------
G|---------------------13p11--13---------------------------------------
D|----------11--11/13-------------13--11--13--11/13--11------11/13/11--
A|--11--14-----------------------------------------------14------------
E|---------------------------------------------------------------------

Stave 11:

E|-------------------------------------------------------------------------
B|-------------------------------------------------------------------------
G|-------------------------------------------------------------------------
D|------------13--------------13--------------11---------11--9--9--13--11--
A|--11h13h14------11--11--11------11--11--11------11--9--------------------
E|-------------------------------------------------------------------------

Stave 12:

E|---------------------------------------------------------------------------
B|---------------------------------12--12--12p10-----------------------------
G|-----------------11/13h14p13/11-----------------12/13--11--9--9/11---------
D|--9--11--13--14-----------------------------------------------------11/13--
A|---------------------------------------------------------------------------
E|---------------------------------------------------------------------------

Stave 13:

E|------------------------------------------------
B|------------------------------------------------
G|------------------------------------------------
D|--11------11--11h13---------------9--11/13--11--
A|------14-------------11--11p9h11----------------
E|------------------------------------------------

Stave 14:

E|------------------------------------------------------------------------------------
B|--16--14--12-16------------------------15-16--15/16----------16---------------------
G|-----------------11/13-------------------------------------------13-----------------
D|--13--11--9-/13---------11/13--11--13--12/13--12-13----------13------11/13--11--13--
A|-----------------------------------------------------16--14-------------------------
E|------------------------------------------------------------------------------------

Stave 15:

E|---------------------------------------------------------------------------------
B|---------------------------------------------------------------------------------
G|--11--8/9------------------------9-----------------------11/9--6-----------------
D|-----------9------------8/9--11-----16/11--9----------------------11--14--12/13--
A|--------------11--9/11------------------------10------9--------------------------
E|--------------------------------------------------12-----------------------------

Stave 16:

E|---------------------------------------------------------------------
B|---------------------------------------------------------------------
G|------------------------------------------------------------------6--
D|----------9--13--11--9---------9--11--9---------------6--------------
A|--14--11----------------11--9------------11--9--7--6-----9--7--6-----
E|---------------------------------------------------------------------

http://www.guitartabcreator.com
Guitar Tab Creator is intended to store guitar tab created through the tool. It currently does not support in-line text editing. Any text you place in here will be lost. If you need to comment on your tab, please use the "Tab Notes" section located below.