Sound will begin in 5 seconds

Ronny Jordan - After Hours (Head)

Chords
01234567891011121314151617181920212223
E
B
G
D
A
E
B
0 1 2 3 4 5 6 7 8 9 10 11 12 13 14 15 16 17 18 19 20 21 22 23
Song Science #1: How Pros Use 6 Chords to Write Hit Songs
(/) Slide Up  (\) Slide Down  (h) Hammer On  (p) Pull Off  (b) Bend (r) Release (v) Vibrato

Stave 1:

E|-----------------------------------------------------------
B|-----------------------------------------------------------
G|------13--9--------------------13--9-----------------------
D|-------------11/13--9--11-------------11/13--11/13--9--11--
A|--11-----------------------11------------------------------
E|-----------------------------------------------------------

Stave 2:

E|--------------------------------------------------
B|------12--10-------------------10--8--------------
G|--------------12/13--9--11------------9/11--7--9--
D|--11------------------------9---------------------
A|--------------------------------------------------
E|--------------------------------------------------

Stave 3:

E|---------------------------------------------------------------
B|---------------------------------------------------------------
G|------13--9--------------------13--9-------------------13--11--
D|-------------11/13--9--11-------------11/13--11/13--9----------
A|--11-----------------------11----------------------------------
E|---------------------------------------------------------------

Stave 4:

E|-----------------------------------------
B|-----------------------------------------
G|--8--6--8--6--4--6--4--------------8--6--
D|--9--8--9--8--6--8--6--4--4--4--4--9--8--
A|-----------------------6--6--6--6--------
E|-----------------------------------------

Stave 5:

E|--------------------------
B|-----9--7--------7--5-----
G|--9--6--4--7--7--4--2--6--
D|--6--------4--4--------2--
A|--------------------------
E|--------------------------

http://www.guitartabcreator.com
Guitar Tab Creator is intended to store guitar tab created through the tool. It currently does not support in-line text editing. Any text you place in here will be lost. If you need to comment on your tab, please use the "Tab Notes" section located below.