Sound will begin in 5 seconds

WIP V.1

Chords
01234567891011121314151617181920212223
E
B
G
D
A
E
B
0 1 2 3 4 5 6 7 8 9 10 11 12 13 14 15 16 17 18 19 20 21 22 23
Song Science #1: How Pros Use 6 Chords to Write Hit Songs
(/) Slide Up  (\) Slide Down  (h) Hammer On  (p) Pull Off  (b) Bend (r) Release (v) Vibrato

Stave 1:

D|----------------------------------------
A|----------------------------------------
F|----------------------------------------
C|----------------------------------------
G|-----------5h8-----4h5-----1h4-----1p0--
C|--0--0--0-------0-------0-------0-------

Stave 2:

D|----------------------------------------------------------------
A|----------------------------------------------------------------
F|----------------------------------------------------------------
C|----------------------------------------------------------------
G|-----------5h8-----------4h5-----------1h4-----1p0--------------
C|--5--5--5-------4--4--4-------1--1--1-------0-------1--1--1--0--

Stave 3:

D|-------------------------------------------------------------------------------
A|-------------------------------------------------------------------------------
F|-------------------------------------------------------------------------------
C|-------------------------------------------------------------------------------
G|------------------------------0h5h8------------------------------0h5h8--0h4h5--
C|--0-----0-----0--0-----0h5h8---------0-----0-----0--0-----0h5h8----------------

Stave 4:

D|--------------------------------------------------
A|--------------------------------------------------
F|--------------------------------------------------
C|--4--5--------------------------------------------
G|--4--5------------------------------0h5h8--0h4h5--
C|--4--5--0h5h8--0h5h8--0h5h8--0h5h8----------------

Stave 5:

D|--------------------------------------
A|--------------------------------------
F|--------------------------------------
C|--------------------------------------
G|--8--8--8--5--5--5--4--4--4-----4--4--
C|--------------------------------------

Stave 6:

D|-----------------------------------------------------------
A|-----------------------------------------------------------
F|-----------------------------------------------------------
C|-----------------------------------------------------------
G|--8--8--8--5--5--5--4--4--4-----4--4-----4--4--4-----4--4--
C|--------------------5--5--5-----5--5-----5--5--5-----5--5--

Stave 7:

D|-----------------------------
A|-----------------------------
F|-----------------------------
C|--------------5--7-----------
G|-----0--5--8-----------8--5--
C|--0-----------------8--------

Stave 8:

D|-----------------------------
A|-----------------------------
F|-----------------------------
C|--------------5--7--------8--
G|-----0--5--8-----------8--5--
C|--0-----------------8-----5--

Stave 9:

D|--------------------------------------------------
A|--------------------------------------------------
F|--------------------------------------------------
C|--8-----8--3-----1-----1--5-----5--5-----5--5--5--
G|--5-----5--3-----1-----1--5-----5--5-----5--5--5--
C|--5-----5--3-----1-----1--5-----5--5-----5--5--5--

Stave 10:

D|--------------------------------------
A|--------------------------------------
F|--------------------------------------
C|--5--5--5-----------------------------
G|--5--5--5--5--------------------------
C|--5--5--5-----8--5--3--5-----0--1--0--

Stave 11:

D|-----------------------------------------------------------
A|-----------------------------------------------------------
F|-----------------------------------------------------------
C|-----------------------------------------------------------
G|-----------5--------------------------------------------5--
C|--0--0--0-----8--5--3--5-----0--1--0-----0-----0-----0--6--

Stave 12:

D|-----------------------------------------------------
A|-----------------------------------------------------
F|-----------------------------------------------------
C|-----------------------------------------------------
G|-----------5-----------------------------------------
C|--0--0--0-----0--0--8--0--0--5--0--0--3--5--0--1--0--

Stave 13:

D|--------------------------------------------------
A|--------------------------------------------------
F|--------------------------------------------------
C|-----------------------------------------------1--
G|-----------5-----------------------------------1--
C|--0--0--0-----0--0--8--0--0--5--0--0--3--5--0--1--

Stave 14:

D|--------------------------------------------------------
A|--------------------------------------------------------
F|--------------------------------------------------------
C|--------------------------------------------------------
G|-----------5--------------------------------------------
C|--0--0--0-----0--0--8--0--0--5--0--0--3--5--0--1b2r1p0--

Stave 15:

D|-----------------------------------------------------------
A|-----------------------------------------------------------
F|-----------------------------------------------------------
C|-----------------------------------------------------------
G|-----------5-----------------------4h5--------1h4-----1p0--
C|--0--0--0-----0--0--8--0--0--5--0-------0--0-------0-------

Stave 16:

D|--------------------------------
A|--------------------------------
F|--------------------------------
C|--------------------------------
G|-----------5-----4-----1-----0--
C|--0--0--0-----------------------

Stave 17:

D|--------------------------------
A|--------------------------------
F|--------------------------------
C|--------------------------------
G|-----------5-----4-----1-----0--
C|--0--0--0--0--------------------

Stave 18:

D|-----------------------------------------------
A|-----------------------------------------------
F|-----------------------------------------------
C|-----------------------------------------------
G|-----------5--5--5--4--4--4--1--1--1--0--0--0--
C|--0--0--0--0--0--0--0--0--0--0--0--0--0--0--0--

Stave 19:

D|--------------
A|--------------
F|--------------
C|--0--0--0-----
G|--0--0--0--4--
C|--0--0--0-----

Stave 20:

D|--------------------------------------------------------------------------
A|--------------------------------------------------------------------------
F|--------------------------------------------------------------------------
C|--------------------------------------------------------------------------
G|--0--0-----0--0-----0--0--0--0--0--------1-----0--0--0-----0-----0-----0--
C|--0--0-----0--0-----0--0--0--0--0-----0--------0--0--0-----0-----0-----0--

Stave 21:

D|----------------------------------------------------------
A|----------------------------------------------------------
F|----------------------------------------------------------
C|----------------------------------------------------------
G|--0--0-----0--0------------0h1h3-----0--0--0--0--0--0--0--
C|--0--0-----0--0-----0h1h3------------0--0--0--0--0--0--0--

Stave 22:

D|-----------------------
A|-----------------------
F|-----------------------
C|-----------------------
G|--0-----0-----0-----0--
C|--0-----0-----0-----0--

Stave 23:

D|--------------------------------------------------------------
A|--------------------------------------------------------------
F|--17--17--17--17--17--20--20--20--20--20--17--17--17--17--17--
C|--------------------------------------------------------------
G|--------------------------------------------------------------
C|--------------------------------------------------------------

Stave 24:

D|--------------------------------------------------------------
A|--------------------------------------------------------------
F|--16--16--16--16--16--17--17--17--17--17--16--16--16--16--16--
C|--------------------------------------------------------------
G|--------------------------------------------------------------
C|--------------------------------------------------------------

Stave 25:

D|----------------------------------------------------------
A|----------------------------------------------------------
F|--13--13--13--13--13--13--13--12--12--12--12--12--12--12--
C|----------------------------------------------------------
G|----------------------------------------------------------
C|----------------------------------------------------------

Stave 26:

D|--------------------------------------------------------------
A|--------------------------------------------------------------
F|--------------------------------------------------------------
C|--------------------------------------------------------------
G|--5--5--5--5--5--8--8--8--8--8--5--5--5--5--5--4--4--4--4--4--
C|--------------------------------------------------------------

Stave 27:

D|--------------------------------------------------------------------------
A|--------------------------------------------------------------------------
F|--------------------------------------------------------------------------
C|--------------------------------------------------------------------------
G|--5--5--5--5--5--4--4--4--4--4--1--1--1--1--1--1--1--0--0--0--0--0--0--0--
C|--------------------------------------------------------------------------

Stave 28:

D|--------------------------------------
A|--------------------------------------
F|--------------------------------------
C|--------------------------------------
G|--------5--------5--------4--------8--
C|--0--0-----0--0-----0--0-----0--0-----

Stave 29:

D|----------------------------------------
A|----------------------------------------
F|----------------------------------------
C|----------------------------------------
G|-----------5h8-----4h5-----5h8-----4h5--
C|--0--0--0-------0-------0-------0-------

Stave 30:

D|-----------------------------------------------
A|-----------------------------------------------
F|-----------------------------------------------
C|--5--5--5--5-----5--5--5--5-----4-----4-----4--
G|--5--5--5--5-----5--5--5--5-----4-----4-----4--
C|--5--5--5--5-----5--5--5--5-----4-----4-----4--

http://www.guitartabcreator.com
Guitar Tab Creator is intended to store guitar tab created through the tool. It currently does not support in-line text editing. Any text you place in here will be lost. If you need to comment on your tab, please use the "Tab Notes" section located below.