Sound will begin in 5 seconds

Cafe 1930

Chords
01234567891011121314151617181920212223
E
B
G
D
A
E
B
0 1 2 3 4 5 6 7 8 9 10 11 12 13 14 15 16 17 18 19 20 21 22 23
Song Science #1: How Pros Use 6 Chords to Write Hit Songs
(/) Slide Up  (\) Slide Down  (h) Hammer On  (p) Pull Off  (b) Bend (r) Release (v) Vibrato

Stave 1:

E|--------------------------------------0--3--------------0-----------------------------------------------
B|-----------------0--------------1--0-----------------------1--0--------------------------------0--1-----
G|--------------0--------------------------------------2-----------2--0--------------------0--2-----------
D|-----------2-----------------2-----------------------------------------4--2--0--------4-----------------
A|-----2--3-----------------------------------0--2--3-----------------------------3--2-----------------2--
E|--0-----------------0--2--3-----------------------------------------------------------------------------

Stave 2:

E|--------------------------------------------------------------------------------------------------------
B|-----------------------------------------1--0--3--1--0-----------------------1--------1-----------------
G|-----------------0--4--0--------------------------------2--0--------------2--4--0--2--4--2--0-----------
D|--------------2-----------4--2--------2-----------------------4--2--0--------------------------4--2--1--
A|--3-----2--3--------------------2--------------------------------------3--------------------------------
E|-----0-----------------------------3--------------------------------------------------------------------

Stave 3:

E|---------------------------10--8--7-----------5--4--------------------------------------
B|-----1-----1----------------------6--------3--------3-----------5-----4-----3-----1-----
G|--2--------2--------7--10---------7-----4--------------4--------5-----4-----3-----4--2--
D|-----------------7----------------6--3--------------------2-----5-----4-----3-----2-----
A|--------3--2-------------------------------------------------0-----0-----0-----0--------
E|--------------7-------------------------------------------------------------------------

Stave 4:

E|-----------------3-----------3--2-----------------------------------------------
B|-----------3--1-----3-----4--------------------------------------3--------------
G|--------0--------------5-----------5--------------4-----------4-----4-----------
D|-----1--------------0-----------------0-----0--4-----2--4--5-----------5--4--2--
A|--0-----------------------------------------------------------------------------
E|-----------------------------------------3--------------------------------------

Stave 5:

E|--------------------------------------------------0--------------0--5-----------------0--
B|--2--------1-----------------------------------0-----------0--1--------------------1-----
G|--3--------2--------------------0-----------0-----------2-----------------------2--------
D|-----2--1-----------------2--4--------2--4--------------------------------2--4-----------
A|--------------2-----2--3-----------------------------3-----------------0-----------------
E|-----------------0-----------------3-----------------------------------------------------

Stave 6:

E|-----------------3--2--------------------------------------------5-----5--
B|--------------5--------------------------------0-----0-----------5-----5--
G|--------2--5--------5--4-----0-----0-----------0-----0-----------4-----4--
D|-----4--------------4--------4-----4-----------4-----4--------------------
A|--2-----------------------------------------------------0--2--3-----3-----
E|--------------------------0-----0-----0--2--3-----3-----------------------

Stave 7:

E|-----------------3--3--
B|-----------------4--4--
G|-----------------2--2--
D|-----------------------
A|--3--2--0--3--2--3--3--
E|-----------------------

Stave 8:

E|-----------------------1--0--------------------------------------------------------
B|--------3-----------2--------------------------1--4--3--------------3--2-----------
G|-----0--------0--3-----------------5--------1--------------------0--------0--------
D|--------------------------------3--------3--------------------2--------------2-----
A|--1--------0-----------------------------------------------1-----------------------
E|-----------------------------4--------3-----------------2-----------------------2--

Stave 9:

E|--------------------2--
B|--------------5--4-----
G|--------2--5-----------
D|-----2-----------------
A|--3--------------------
E|-----------------------

Stave 10:

E|-----------------------------7-----------0-----------------------------------------------
B|-----------5--8--------5--7-----------0-----3--1--0-----------------0--1--3--1--0--------
G|-----4--5-----------4--------------2-----------------2--0--------2-----------------2-----
D|-----------------5-----------------------------------------------------------------------
A|--7-----------------------------3--------------------------3--2-----------------------2--
E|-----------------------------------------------------------------------------------------

Stave 11:

E|-----------------------------------------7--7-----7-----------
B|-----------5--8--8--5--------------5--7--------5-----7--5-----
G|-----4--5--------------5--4-----4--------------------------4--
D|-----------------------------5--------------------------------
A|--7-----------------------------------------------------------
E|--------------------------------------------------------------

Stave 12:

E|-----------0-----------0-----------0-----------0--------------
B|-----0--1--------0--1--------0--1--------0--1-----------------
G|--2-----------0--------------------------------------5--4-----
D|--------------------------4-----------2--------------7--------
A|--------------------------------------------------6--------2--
E|--------------------------------------------------------------

Stave 13:

E|-----------3--2--------------0---------------------------------------------------------12--
B|--------5--------3--------1-----3--0-----------1--0--------------------------------12------
G|-----4--------------2--0--------------------0----------------------------------------------
D|--------------------------------------4--2-----------4--2-----2----------------------------
A|-----------------------------------------------------------3-----2--5--0--3--2-------------
E|--0-----------------------------------------------------------------------------0----------

http://www.guitartabcreator.com
Guitar Tab Creator is intended to store guitar tab created through the tool. It currently does not support in-line text editing. Any text you place in here will be lost. If you need to comment on your tab, please use the "Tab Notes" section located below.