Golden Hour - Johnathan Morali (Life is Strange OST)

Chords

01234567891011121314151617181920212223
E
B
G
D
A
E
B
0 1 2 3 4 5 6 7 8 9 10 11 12 13 14 15 16 17 18 19 20 21 22 23
(/) Slide Up  (\) Slide Down  (h) Hammer On  (p) Pull Off  (b) Bend (r) Release (v) Vibrato

Stave 1:

E|--0-----0-----0-----0-----0-----0-----0-----0-----0-----0-----0-----0-----0-----0-----0-----0-----------------------------------------------------
B|-----1-----1-----1-----1-----1-----1-----1-----1-----1-----1-----1-----1-----1-----1-----1-----1-----1-----1-----1-----1-----1-----1-----1-----1--
G|--------------------------------------------------------------------------------------------------0-----0-----0-----0-----0-----0-----0-----0-----
D|--------------------------------------------------------------------------------------------------------------------------------------------------
A|--------------------------------------------------------------------------------------------------------------------------------------------------
E|--------------------------------------------------------------------------------------------------------------------------------------------------

Stave 2:

E|--------------------------------------------------
B|--------1-----0-----------------------------------
G|--------------------------0-----------------------
D|-----2-----2-----2-----2-----2-----2-----2-----2--
A|--3-----3-----3-----3-----3-----3-----3-----3-----
E|--------------------------------------------------

Stave 3:

E|--------------------------------------------------
B|--------------------------0-----------------------
G|--2-----------0-----------------------------------
D|--------------------------------------------------
A|-----2-----2-----2-----2-----2-----2-----2-----2--
E|--3-----3-----3-----3-----3-----3-----3-----3-----

Stave 4:

E|--0--------------------------------------------------------------------|-----------------------|--0--------------------
B|--------------1-----------0--------------------------------------------|-----------------------|-----------------------
G|--------------------------------------0--------------------------------|-----------------------|-----------------------
D|-----2-----2-----2-----2--------------------------0--------------------|--2-----2-----2-----2--|--------2-----2-----2--
A|--0-----0-----0-----0--------2-----2-----2-----2-----2-----2-----2-----|--3--3-----3-----3-----|--3--3-----3-----3-----
E|--------------------------3-----3-----3-----3-----3-----3-----3-----3--|-----------------------|-----------------------

Stave 5:

E|--------------------------------------------------------------1-----------------------------------------------------------
B|--------------------------1-----------------------------------------------0-----------------------------------------------
G|--2-----------------------------------------------0-----------------------------------------------------------------------
D|--------------3-----------------------------------------------------------------------------------------------------------
A|-----0-----0-----0-----0-----0-----0-----0-----0-----2-----2-----2-----2-----2-----2-----2-----2-----2-----2-----2-----2--
E|--1-----1-----1-----1-----1-----1-----1-----1-----3-----3-----3-----3-----3-----3-----3-----3-----3-----3-----3-----3-----

							http://www.guitartabcreator.com
Instruments
{"strings":[[[0,".",0,".",0,".",0,".",0,".",0,".",0,".",0,".",0,".",0,".",0,".",0,".",0,".",0,".",0,".",0,".",".",".",".",".",".",".",".",".",".",".",".",".",".",".",".","."],[".",1,".",1,".",1,".",1,".",1,".",1,".",1,".",1,".",1,".",1,".",1,".",1,".",1,".",1,".",1,".",1,".",1,".",1,".",1,".",1,".",1,".",1,".",1,".",1],[".",".",".",".",".",".",".",".",".",".",".",".",".",".",".",".",".",".",".",".",".",".",".",".",".",".",".",".",".",".",".",".",0,".",0,".",0,".",0,".",0,".",0,".",0,".",0,"."],[".",".",".",".",".",".",".",".",".",".",".",".",".",".",".",".",".",".",".",".",".",".",".",".",".",".",".",".",".",".",".",".",".",".",".",".",".",".",".",".",".",".",".",".",".",".",".","."],[".",".",".",".",".",".",".",".",".",".",".",".",".",".",".",".",".",".",".",".",".",".",".",".",".",".",".",".",".",".",".",".",".",".",".",".",".",".",".",".",".",".",".",".",".",".",".","."],[".",".",".",".",".",".",".",".",".",".",".",".",".",".",".",".",".",".",".",".",".",".",".",".",".",".",".",".",".",".",".",".",".",".",".",".",".",".",".",".",".",".",".",".",".",".",".","."]],[[".",".",".",".",".",".",".",".",".",".",".",".",".",".",".","."],[".",".",1,".",0,".",".",".",".",".",".",".",".",".",".","."],[".",".",".",".",".",".",".",".",0,".",".",".",".",".",".","."],[".",2,".",2,".",2,".",2,".",2,".",2,".",2,".",2],[3,".",3,".",3,".",3,".",3,".",3,".",3,".",3,"."],[".",".",".",".",".",".",".",".",".",".",".",".",".",".",".","."]],[[".",".",".",".",".",".",".",".",".",".",".",".",".",".",".","."],[".",".",".",".",".",".",".",".",0,".",".",".",".",".",".","."],[2,".",".",".",0,".",".",".",".",".",".",".",".",".",".","."],[".",".",".",".",".",".",".",".",".",".",".",".",".",".",".","."],[".",2,".",2,".",2,".",2,".",2,".",2,".",2,".",2],[3,".",3,".",3,".",3,".",3,".",3,".",3,".",3,"."]],[[0,".",".",".",".",".",".",".",".",".",".",".",".",".",".",".",".",".",".",".",".",".",".","|",".",".",".",".",".",".",".","|",0,".",".",".",".",".","."],[".",".",".",".",1,".",".",".",0,".",".",".",".",".",".",".",".",".",".",".",".",".",".","|",".",".",".",".",".",".",".","|",".",".",".",".",".",".","."],[".",".",".",".",".",".",".",".",".",".",".",".",0,".",".",".",".",".",".",".",".",".",".","|",".",".",".",".",".",".",".","|",".",".",".",".",".",".","."],[".",2,".",2,".",2,".",2,".",".",".",".",".",".",".",".",0,".",".",".",".",".",".","|",2,".",2,".",2,".",2,"|",".",".",2,".",2,".",2],[0,".",0,".",0,".",0,".",".",2,".",2,".",2,".",2,".",2,".",2,".",2,".","|",3,3,".",3,".",3,".","|",3,3,".",3,".",3,"."],[".",".",".",".",".",".",".",".",3,".",3,".",3,".",3,".",3,".",3,".",3,".",3,"|",".",".",".",".",".",".",".","|",".",".",".",".",".",".","."]],[[".",".",".",".",".",".",".",".",".",".",".",".",".",".",".",".",".",".",".",".",1,".",".",".",".",".",".",".",".",".",".",".",".",".",".",".",".",".",".","."],[".",".",".",".",".",".",".",".",1,".",".",".",".",".",".",".",".",".",".",".",".",".",".",".",0,".",".",".",".",".",".",".",".",".",".",".",".",".",".","."],[2,".",".",".",".",".",".",".",".",".",".",".",".",".",".",".",0,".",".",".",".",".",".",".",".",".",".",".",".",".",".",".",".",".",".",".",".",".",".","."],[".",".",".",".",3,".",".",".",".",".",".",".",".",".",".",".",".",".",".",".",".",".",".",".",".",".",".",".",".",".",".",".",".",".",".",".",".",".",".","."],[".",0,".",0,".",0,".",0,".",0,".",0,".",0,".",0,".",2,".",2,".",2,".",2,".",2,".",2,".",2,".",2,".",2,".",2,".",2,".",2],[1,".",1,".",1,".",1,".",1,".",1,".",1,".",1,".",3,".",3,".",3,".",3,".",3,".",3,".",3,".",3,".",3,".",3,".",3,".",3,"."]]],"numberofstrings":6,"notes":["E","B","G","D","A","E","B"],"capo":0,"stringnotes":["E4","B3","G3","D3","A2","E2"],"comments":["Stave 1:","Stave 2:","Stave 3:","Stave 4:","Stave 5:","Stave 6:"],"timing":[[null,null,null,null,null,null,null,null,"W","W","W","W","W","W","W","W","W","W","W","W","W","W","W","W","W","W","W","W","W","W","W","W","W","W","W","W","W","W","W","W","W","W","W","W","W","W","W","W"],[null,null,null,null,null,null,null,null],[null,null,null,null,null,null,null,null,null,null,null,null,null,null,null,null],[null,null,null,null,null,null,null,null,null,null,null,null,null,null,null,null,null,null,null,null,null,"W","W","W","W","W","W","W","W","W","W",null,"W","W","W","W","W","W","W"],["W","W","W","W","W","W","W","W","W","W","W","W","W","W","W","W","W","W","W","W","W","W","W","W","W","W","W","W","W","W","W","W","W","W","W","W","W","W","W","W"],[]],"timingvisible":false,"tabcounter":40,"stave":4,"totalstaves":5,"instrument":"6guitar","selectedtuning":"6_standard","version":"13"}

Member for

1 month
Submitted by thepinkarab on Fri, 2020-10-30 18:15