Sound will begin in 5 seconds

School Rocks (Suck Our *****) Lead Solo - Amerikan Prodigy 2016

Chords
01234567891011121314151617181920212223
E
B
G
D
A
E
B
0 1 2 3 4 5 6 7 8 9 10 11 12 13 14 15 16 17 18 19 20 21 22 23
Song Science #1: How Pros Use 6 Chords to Write Hit Songs
(/) Slide Up  (\) Slide Down  (h) Hammer On  (p) Pull Off  (b) Bend (r) Release (v) Vibrato

Stave 1:

Eb|-17--------------------14-------------------------------------------
Bb|-19v----17-15-14-15-17----17-15-14-------------12----12-------------
Gb|-----------------------------------16-------11----11----11/13-------
Db|--------------------------------------------------------------------
Bb|--------------------------------------------------------------------
Eb|--------------------------------------------------------------------

Stave 2:

Eb|-14h19-19-19-----------------------------------------------------------------------21--
Bb|-------------15h19-19-19-----------------------------------------------------------20v-
Gb|-------------------------14h19-19-19-------------------------------16-19-18v-----------
Db|-------------------------------------16h19-19-19----------16-18-19---------------------
Bb|-------------------------------------------------16-17-19------------------------------
Eb|---------------------------------------------------------------------------------------

Stave 3:

Eb|-------------------------------------14-15-17-16v----------18/20h21b23----0/21\1-
Bb|----------------------------14-15-17---------------------------------------------
Gb|----------------------14-16------------------------------------------------------
Db|-------------12-14-16------------------------------------------------------------
Bb|-14-13-14-16---------------------------------------------------------------------
Eb|---------------------------------------------------------------------------------

Stave 4:

Eb|-19-10-14-19-10-14-19-10-14-19-10-14-19-10-14-17-10-14-17-10-14-17-10-14-17-10-14-17-10-------16v-
Bb|--------------------------------------------------------------------------------------------------
Gb|--------------------------------------------------------------------------------------------------
Db|--------------------------------------------------------------------------------------------------
Bb|--------------------------------------------------------------------------------------------------
Eb|--------------------------------------------------------------------------------------------------

Stave 5:

Eb|-15----------14-12-10----
Bb|----------------------12-
Gb|-------------------------
Db|-------------------------
Bb|-------------------------
Eb|-------------------------

http://www.guitartabcreator.com
Guitar Tab Creator is intended to store guitar tab created through the tool. It currently does not support in-line text editing. Any text you place in here will be lost. If you need to comment on your tab, please use the "Tab Notes" section located below.