Sound will begin in 5 seconds

You Make Me Brave

Chords
01234567891011121314151617181920212223
E
B
G
D
A
E
B
0 1 2 3 4 5 6 7 8 9 10 11 12 13 14 15 16 17 18 19 20 21 22 23
Song Science #1: How Pros Use 6 Chords to Write Hit Songs
(/) Slide Up  (\) Slide Down  (h) Hammer On  (p) Pull Off  (b) Bend (r) Release (v) Vibrato

Stave 1:

E|----------14--------------------------14----------------------17--
B|------15------17------------------15------17--15----------15------
G|--14--------------------------14------------------14--14----------
D|------------------------------------------------------------------
A|------------------------------------------------------------------
E|------------------------------------------------------------------

Stave 2:

E|------------------------------------------
B|------------------------------------------
G|------------------------------------------
D|--9--------7--------11--------9--------5--
A|------------------------------------------
E|------------------------------------------

Stave 3:

E|--10--12--14--12--10--14--12--10--9--
B|--7---10--10--8---7---10--8---7---5--
G|-------------------------------------
D|-------------------------------------
A|-------------------------------------
E|-------------------------------------

Stave 4:

E|------------------------------------------------------------------------------------------------------
B|------------------------------------------------------------------------------------------------------
G|--11--------9--------11--------11--------9--------11--------9--------9--------11--------12--------14--
D|--9---------9--------7---------9---------9--------7---------7--------5--------7---------9---------11--
A|------------------------------------------------------------------------------------------------------
E|------------------------------------------------------------------------------------------------------

Stave 5:

E|-----------5--------------5--------------------5--------------5-----------
B|-----5--------------5--------5-----5-----5--------------5--------5-----5--
G|--7-----7--------7-----7--------7-----6-----6--------6-----6--------6-----
D|--------------------------------------------------------------------------
A|--------------------------------------------------------------------------
E|--------------------------------------------------------------------------

Stave 6:

E|-----------5--------------------5--------------------5--------------------5--
B|-----8--------8-----8-----7--------7-----7-----8--------8-----8-----5--------
G|--7-----7--------7-----7-----7--------7-----7-----7--------7-----6-----6-----
D|-----------------------------------------------------------------------------
A|-----------------------------------------------------------------------------
E|-----------------------------------------------------------------------------

Stave 7:

E|--------------------
B|--7--5-----7--5-----
G|--------7--------7--
D|--------------------
A|--------------------
E|--------------------

Stave 8:

E|----------14-----------------14-----------------14---------------------17----------17----------17----------17--
B|------15------17---------15------17---------15------17---------14----------14----------14----------14----------
G|--16-----------------12-----------------14-----------------14------14----------14----------14----------14------
D|---------------------------------------------------------------------------------------------------------------
A|---------------------------------------------------------------------------------------------------------------
E|---------------------------------------------------------------------------------------------------------------

http://www.guitartabcreator.com
Guitar Tab Creator is intended to store guitar tab created through the tool. It currently does not support in-line text editing. Any text you place in here will be lost. If you need to comment on your tab, please use the "Tab Notes" section located below.