Sound will begin in 5 seconds

Slipknot - Killpop

Chords
01234567891011121314151617181920212223
E
B
G
D
A
E
B
0 1 2 3 4 5 6 7 8 9 10 11 12 13 14 15 16 17 18 19 20 21 22 23
Song Science #1: How Pros Use 6 Chords to Write Hit Songs
(/) Slide Up  (\) Slide Down  (h) Hammer On  (p) Pull Off  (b) Bend (r) Release (v) Vibrato

Stave 1:

E|-----------------------------------------------------------
B|-----------------------------------------------------------
G|---7---7---7---7---6---6---6---6---7---7---7---9---6---6---
D|---7---7---7---7---6---6---6---6---7---7---7---9---6---6---
A|---5---5---5---5---4---4---4---4---5---5---5---7---4---4---
E|-----------------------------------------------------------
A|-----------------------------------------------------------

Stave 2:

E|-------------------------------------
B|-------------------------------------
G|---8-------9--------8-------9--------
D|-------9-------11-------9-------11---
A|-------------------------------------
E|-------------------------------------
A|-------------------------------------

Stave 3:

E|-----------------------------------------------------------------------
B|-----------------------------------------------------------------------
G|-----------------------------------------------------------------------
D|-----------------------------------------------------------------------
A|---2---4---7---6---2---4---4---4---4---4---4---2---2---2---2---2---2---
E|---2---4---7---6---2---4---4---4---4---4---4---2---2---2---2---2---2---
A|---2---4---7---6---2---4---4---4---4---4---4---2---2---2---2---2---2---

Stave 4:

E|-------------------
B|-------------------
G|-------------------
D|-------------------
A|---7---6---2---6---
E|---7---6---2---6---
A|---7---6---2---6---

http://www.guitartabcreator.com
Guitar Tab Creator is intended to store guitar tab created through the tool. It currently does not support in-line text editing. Any text you place in here will be lost. If you need to comment on your tab, please use the "Tab Notes" section located below.