Bertha bass

Chords

01234567891011121314151617181920212223
E
B
G
D
A
E
B
0 1 2 3 4 5 6 7 8 9 10 11 12 13 14 15 16 17 18 19 20 21 22 23
(/) Slide Up  (\) Slide Down  (h) Hammer On  (p) Pull Off  (b) Bend (r) Release (v) Vibrato

Stave 1:

G|----------------------------------------------------------------------------------------------------------------
D|----------------------------------------------------------------------------------------------------------------
A|------------10--10--10--10--10--------------10------10--10--10--10--10--------------10------10--10--10--10--10--
E|--3\10--12----------------------10--10--12------12----------------------10--10--12------12----------------------

Stave 2:

G|------------------------------------------------------------------------------------------------------------------------------------------------------------------
D|--------------10------10--10--10--10--10--------------10------10--10--10--10--10----------------------------------------------------------------------------------
A|--10--10--12------12----------------------10--10--12------12----------------------------------10------10--10--10--10--10--------------10------10--10--10--10--10--
E|----------------------------------------------------------------------------------10--10--12------12----------------------10--10--12------12----------------------

Stave 3:

G|------------------------------------------------------------------------------------------------------------------------------------------------------------------------------------
D|--------------12--12------12------12--9--10--12-----------------7-----7--------------0--0--7--0--10--10--10--9------------------12--12--14--12--10--10--10--------------------------
A|-------------------------------------------------------------------------------2--3-----------------------------12--10--10--10------------------------------12--12--14--15--15--12--
E|--10--10--10----------10------10-----------------10\3--5--5--5-----5-----3--3-------------------------------------------------------------------------------------------------------

							http://www.guitartabcreator.com
Instruments
{"strings":[[[".",".",".",".",".",".",".",".",".",".",".",".",".",".",".",".",".",".",".",".",".",".",".",".",".",".",".",".","."],[".",".",".",".",".",".",".",".",".",".",".",".",".",".",".",".",".",".",".",".",".",".",".",".",".",".",".",".","."],[".",".",".",".",10,10,10,10,10,".",".",".",10,".",10,10,10,10,10,".",".",".",10,".",10,10,10,10,10],[3,"\\",10,12,".",".",".",".",".",10,10,12,".",12,".",".",".",".",".",10,10,12,".",12,".",".",".",".","."]],[[".",".",".",".",".",".",".",".",".",".",".",".",".",".",".",".",".",".",".",".",".",".",".",".",".",".",".",".",".",".",".",".",".",".",".",".",".",".",".","."],[".",".",".",10,".",10,10,10,10,10,".",".",".",10,".",10,10,10,10,10,".",".",".",".",".",".",".",".",".",".",".",".",".",".",".",".",".",".",".","."],[10,10,12,".",12,".",".",".",".",".",10,10,12,".",12,".",".",".",".",".",".",".",".",10,".",10,10,10,10,10,".",".",".",10,".",10,10,10,10,10],[".",".",".",".",".",".",".",".",".",".",".",".",".",".",".",".",".",".",".",".",10,10,12,".",12,".",".",".",".",".",10,10,12,".",12,".",".",".",".","."]],[[".",".",".",".",".",".",".",".",".",".",".",".",".",".",".",".",".",".",".",".",".",".",".",".",".",".",".",".",".",".",".",".",".",".",".",".",".",".",".",".",".",".",".",".",".",".",".",".",".","."],[".",".",".",12,12,".",12,".",12,9,10,12,".",".",".",".",".",".",7,".",7,".",".",".",".",0,0,7,0,10,10,10,9,".",".",".",".",12,12,14,12,10,10,10,".",".",".",".",".","."],[".",".",".",".",".",".",".",".",".",".",".",".",".",".",".",".",".",".",".",".",".",".",".",2,3,".",".",".",".",".",".",".",".",12,10,10,10,".",".",".",".",".",".",".",12,12,14,15,15,12],[10,10,10,".",".",10,".",10,".",".",".",".",10,"\\",3,5,5,5,".",5,".",3,3,".",".",".",".",".",".",".",".",".",".",".",".",".",".",".",".",".",".",".",".",".",".",".",".",".",".","."]]],"numberofstrings":4,"notes":["G","D","A","E"],"capo":0,"stringnotes":["G2","D2","A1","E1"],"comments":["Stave 1:","Stave 2:","Stave 3:"],"timing":[["W",null,"W","W","W","W","W","W","W","W","W","W","W","W","W","W","W","W","W","W","W","W","W","W","W","W","W","W","W"],["W","W","W","W","W","W","W","W","W","W","W","W","W","W","W","W","W","W","W","W","W","W","W","W","W","W","W","W","W","W","W","W","W","W","W","W","W","W","W","W"],["W","W","W","W","W","W","W","W","W","W","W","W","W",null,"W","W","W","W","W","W","W","W","W","W","W","W","W","W","W","W","W","W","W","W","W","W","W","W","W","W","W","W","W","W","W","W","W","W","W","W","W"]],"timingvisible":false,"tabcounter":50,"stave":2,"totalstaves":3,"instrument":"4bass","selectedtuning":"4bass","version":"13"}

Member for

1 month 4 weeks
Submitted by themanwhocanfly on Mon, 2020-10-05 13:26