Sound will begin in 5 seconds

warmup

01234567891011121314151617181920212223
E
B
G
D
A
E
B
0 1 2 3 4 5 6 7 8 9 10 11 12 13 14 15 16 17 18 19 20 21 22 23
Song Science #1: How Pros Use 6 Chords to Write Hit Songs
(/) Slide Up  (\) Slide Down  (h) Hammer On  (p) Pull Off  (b) Bend (r) Release (v) Vibrato

Stave 1:

E|--15----------------------------------12--13--14--15------------------------------------------------------------------------------
B|------14--------------------------13------------------14----------15----------------------------------12--13--14--15--------------
G|----------13------------------14--------------------------13----------14--------------------------13------------------14----------
D|--------------12--13--14--15----------------------------------12----------13------------------14--------------------------13------
A|------------------------------------------------------------------------------12--13--14--15----------------------------------12--
E|----------------------------------------------------------------------------------------------------------------------------------
B|----------------------------------------------------------------------------------------------------------------------------------

Stave 2:

E|----------------------------------------------------------------------------------------------------------
B|----------------------------------------------------------------------------------------------------------
G|--15----------------------------------12--13--14--15------------------------------------------------------
D|------14--------------------------13------------------14----------15----------------------------------12--
A|----------13------------------14--------------------------13----------14--------------------------13------
E|--------------12--13--14--15----------------------------------12----------13------------------14----------
B|------------------------------------------------------------------------------12--13--14--15--------------

Stave 3:

E|----------------------------------------------------------------------------------------------------------------------------------
B|------------------------------------------------------------------------------12--13--14--15----------------------------------12--
G|--------------12--13--14--15----------------------------------12----------13------------------14--------------------------13------
D|----------13------------------14--------------------------13----------14--------------------------13------------------14----------
A|------14--------------------------13------------------14----------15----------------------------------12--13--14--15--------------
E|--15----------------------------------12--13--14--15------------------------------------------------------------------------------
B|----------------------------------------------------------------------------------------------------------------------------------

Stave 4:

E|--------------12--13--14--15--
B|----------13------------------
G|------14----------------------
D|--15--------------------------
A|------------------------------
E|------------------------------
B|------------------------------

http://www.guitartabcreator.com
Guitar Tab Creator is intended to store guitar tab created through the tool. It currently does not support in-line text editing. Any text you place in here will be lost. If you need to comment on your tab, please use the "Tab Notes" section located below.