Sound will begin in 5 seconds

tvt

Chords
01234567891011121314151617181920212223
E
B
G
D
A
E
B
0 1 2 3 4 5 6 7 8 9 10 11 12 13 14 15 16 17 18 19 20 21 22 23
Song Science #1: How Pros Use 6 Chords to Write Hit Songs
(/) Slide Up  (\) Slide Down  (h) Hammer On  (p) Pull Off  (b) Bend (r) Release (v) Vibrato

Stave 1:

Eb|------------------
Ab|--12--12----------
F |----------12--10--
Db|--12--12--12--12--
Ab|--10--------------
Db|------9---12--12--

Stave 2:

Eb|--------
Ab|--------
F |--0--3--
Db|--0--0--
Ab|--0--5--
Db|--4--5--

Stave 3:

Eb|----------------
Ab|----------------
F |--5--3--12--13--
Db|--5--5--12--12--
Ab|----------------
Db|--5--5--12--12--

Stave 4:

Eb|--------------------------------------------------------5-----------5-----------5--
Ab|--5--7--9-----5--7--9-----5--7--9--------------5-----5-----------5-----------5-----
F |--------------------------------------3--5--7-----7-----------7-----------7--------
Db|-----------------------------------------------------------------------------------
Ab|-----------------------------------------------------------------------------------
Db|-----------------------------------------------------------------------------------

http://www.guitartabcreator.com
Guitar Tab Creator is intended to store guitar tab created through the tool. It currently does not support in-line text editing. Any text you place in here will be lost. If you need to comment on your tab, please use the "Tab Notes" section located below.