Sound will begin in 5 seconds

New Eden

Chords
01234567891011121314151617181920212223
E
B
G
D
A
E
B
0 1 2 3 4 5 6 7 8 9 10 11 12 13 14 15 16 17 18 19 20 21 22 23
Song Science #1: How Pros Use 6 Chords to Write Hit Songs
(/) Slide Up  (\) Slide Down  (h) Hammer On  (p) Pull Off  (b) Bend (r) Release (v) Vibrato

Stave 1:

B |--------------------0--5--0------------------------------------------------------------------0--5--0--------------------------0----------------0--
G |-----------------------------------------------------6----------------6----------------------------------------------------6----------------6-----
D |--------------4--6-----------6--4-----------------9----------------9-------------------4--6-----------6--4--------------9----------------9--------
A |-----------0-----------------------0-----------0----------------0-------------------0-----------------------0--------0----------------0-----------
E |--------4-----------------------------4-----9----------------9-------------------4-----------------------------4----------------------------------
A |-----4-----------------------------------9----------------0-------------------4-----------------------------------9----------------0--------------
Db|--0------------------------------------------------------------------------0----------------------------------------------------------------------

Stave 2:

B |-----------------------------------------0------------0--------------------------------------0-----------------------------------------0------------0-----
G |-------------------------------------11-----11-----4-----4-----------4--------------4--2-------------------------------------------11-----11-----4-----4--
D |-------------------------11--14--13-------------6-----------------6-----9--8--6-----------4----------------------------11--14--13-------------6-----------
A |---------------------11----------------------------------------4---------------------------------------------------11-------------------------------------
E |----------9--12--11-----------------------------------------2-------------------------------------------9--12--11-----------------------------------------
A |------11-------------------------------------------------------------------------0------------------11----------------------------------------------------
Db|--12--------------------------------------------------------------------------------------------12--------------------------------------------------------

Stave 3:

B |----------------------------------------
G |-----------11--9------------------------
D |--------6--11--9--11--9-----7--6--------
A |-----4------------11--9-----0-----7-----
E |--2----------------------------------7--
A |-------------------------0--------------
Db|----------------------------------------

Stave 4:

B |---------------------------------------------------------------------------------21---------21--
G |---------------------------------------------------6---------13---------18-------20---------21--
D |---------------------------------------------------6---------13---------18-------21---------22--
A |-------------7--6--4--3----------------------------7---------14---------19-------_-------------
E |----------8--------------5--4----------------------0---------0----------0--------0--------------
A |------11-----------------------9--7--6--4--2--0---------0----------0----------0--_-------------
Db|--11-----------------------------------------------------------------------------_------0------

http://www.guitartabcreator.com
Guitar Tab Creator is intended to store guitar tab created through the tool. It currently does not support in-line text editing. Any text you place in here will be lost. If you need to comment on your tab, please use the "Tab Notes" section located below.