Sound will begin in 5 seconds

Hot and Informed

Chords
01234567891011121314151617181920212223
E
B
G
D
A
E
B
0 1 2 3 4 5 6 7 8 9 10 11 12 13 14 15 16 17 18 19 20 21 22 23
Song Science #1: How Pros Use 6 Chords to Write Hit Songs
(/) Slide Up  (\) Slide Down  (h) Hammer On  (p) Pull Off  (b) Bend (r) Release (v) Vibrato

Stave 1:

E|---------------------------------------------------------------------------------------
B|----------------------------------10----------------------------------10--9--7---------
G|----------------------------------9---9-----------------------------------------9------
D|--9--11--9--7--------7--9--11--9------7-------------------7--9/11--7---------------11--
A|---------------7--9-------------------------------5--7/9-------------------------------
D|--------------------------------------------0------------------------------------------

Stave 2:

E|------------------------------------------------------------------------------------------------
B|------------------------------------------------------------------------------------------------
G|--9---------------11\6--------------------------------------------------------------9--------9--
D|--11-----9--7--------------------------------11\9\7--9--11--9--7--------7--9/11--7-----11\9-----
A|-------------------------------------7h9/12-----------------------7--9--------------------------
D|---------------------------7--9--11-------------------------------------------------------------

Stave 3:

E|--------------------------------------------------
B|-------------------------10--9--7----------10-----
G|-----------------------------------6h9/11------9--
D|-------------7--9/11--7---------------------------
A|-----5--7/9---------------------------------------
D|--0-----------------------------------------------

Stave 4:

E|-------------------------------------------------------------------------
B|-------------------------------------------------------------------------
G|--------9--9h11r9-----9--------9-----9/11\9------------------------------
D|-----7-------------------7--7-----7--------------5--5--5--5--5--5--5--5--
A|--9----------------9-------------------------12--5--5--5--5--5--5--5--5--
D|-------------------------------------------------5--5--5--5--5--5--5--5--

Stave 5:

E|----------------------
B|-----10--9------------
G|------------9------9--
D|--0------------11-----
A|--0-------------------
D|--0-------------------

http://www.guitartabcreator.com
Guitar Tab Creator is intended to store guitar tab created through the tool. It currently does not support in-line text editing. Any text you place in here will be lost. If you need to comment on your tab, please use the "Tab Notes" section located below.