Sound will begin in 5 seconds

ender all

Chords
01234567891011121314151617181920212223
E
B
G
D
A
E
B
0 1 2 3 4 5 6 7 8 9 10 11 12 13 14 15 16 17 18 19 20 21 22 23
Song Science #1: How Pros Use 6 Chords to Write Hit Songs
(/) Slide Up  (\) Slide Down  (h) Hammer On  (p) Pull Off  (b) Bend (r) Release (v) Vibrato

Stave 1:

E|-------------------------------------------------------------------------------------------------
B|---------------------------------------9--9------------------------------------------------------
G|--------------9------------------9-----------------8------------------8-----13--13---------------
D|--6--6--4--6--6------------------6-----6--6--4--6--6------------------6--------------------------
A|--7-----------7---------------9--7-----7--7--------7---------------9--7-----11--11--9--11--9-----
E|--0-----------0-----0--9--12-----0-----0--0--------0-----0--9--12-----0-----0---0----------------

Stave 2:

E|-------------------------------------------------------
B|-------------------------------------------------------
G|--------------------------------13--13\4--2--2/4\2--1--
D|---------------------11--9-----------------------------
A|------------9--9------------11-------------------------
E|--0--9--12---------------------------------------------

Stave 3:

E|---------------------------------4--7--4-------------------------------------
B|---------------------------4--5--------------------9-----------9-----7--7\5--
G|-------------13-----4\2/4--------------------9-----------9-------------------
D|--11--9-----------------------------------------9-----------9----------------
A|---------11------------------------------------------------------------------
E|-----------------------------------------------------------------------------

Stave 4:

E|-----------------------------------------------
B|--------------------------------7-----7--9/12--
G|-----------------------------------------------
D|--6-----6--6--7--9-----6--7--9-----9-----------
A|--7-----7--7--7--7-----------------------------
E|--0-----0--0--0--0-----------------------------

http://www.guitartabcreator.com
Guitar Tab Creator is intended to store guitar tab created through the tool. It currently does not support in-line text editing. Any text you place in here will be lost. If you need to comment on your tab, please use the "Tab Notes" section located below.