Sound will begin in 5 seconds

bedford ave

01234567891011121314151617181920212223
E
B
G
D
A
E
B
0 1 2 3 4 5 6 7 8 9 10 11 12 13 14 15 16 17 18 19 20 21 22 23
Song Science #1: How Pros Use 6 Chords to Write Hit Songs
(/) Slide Up  (\) Slide Down  (h) Hammer On  (p) Pull Off  (b) Bend (r) Release (v) Vibrato

Stave 1:

G|--------------------------------------------------------------------------------------------------
D|--------------------------------------------------------------------------------------------------
A|--------------------------5--5--5--5--------------------------------------------------4--4--4--4--
E|--5--5--5--5--5--5--5--5--------------6--6--6--6--7--7--7--7--7--7--7--7--2--2--2--2--------------

Stave 2:

G|-----------------------------------------------------------------------------------------------
D|-----------------------------------------------------------------------------------------------
A|--5--5--5--5--5--5--5-----------------------------2--2--2--2--2--2--2--------------4--4--4--4--
E|-----------------------2--2--2--2--5--5--5--5--------------------------2--2--2--2--------------

Stave 3:

G|---------------------------------------------------------------------------------------------------
D|---------------------------------------------------------------------------------------------------
A|--5--5--5--5--5--5--5--9--9--9--9--9--9--9--9--5--5--5--5--9--9--9--9------------------------------
E|-----------------------------------------------------------------------5--5--5--5--10--10--10--10--

Stave 4:

G|-------------------9--11-----------------------------------------------------------------------------------
D|------------9--11------------------------------------------------------------------------------------------
A|---------9-------------------------------------------------------------------------------------------------
E|--9--12-------------------10-----10--10--12--------10--10--10--10--14--14--14--14--5--5--5--5--9--9--9--9--

Stave 5:

G|-------------------9--11-----------------
D|------------9--11------------------------
A|---------9-------------------------------
E|--9--12-------------------7-----7--7--5--

Stave 6:

G|--9--9--11--11-------------------------------------9--9--11--11-----------------------------------
D|-------------------7--7--9--9--11--11-------------------------------7--7--9--9--------------------
A|---------------------------------------9--9--9----------------------------------9--9--12--12--12--
E|--------------------------------------------------------------------------------------------------

Stave 7:

G|--9--9--11--11-------------------------------------9--9--11--11------------------------------------
D|-------------------7--7--9--9--11--11-------------------------------7--7--9--9---------------------
A|---------------------------------------9--9--9----------------------------------9------12--12--12--
E|-----------------------------------------------------------------------------------10--------------

http://www.guitartabcreator.com
Guitar Tab Creator is intended to store guitar tab created through the tool. It currently does not support in-line text editing. Any text you place in here will be lost. If you need to comment on your tab, please use the "Tab Notes" section located below.