Windham Chill

Chords

01234567891011121314151617181920212223
E
B
G
D
A
E
B
0 1 2 3 4 5 6 7 8 9 10 11 12 13 14 15 16 17 18 19 20 21 22 23
(/) Slide Up  (\) Slide Down  (h) Hammer On  (p) Pull Off  (b) Bend (r) Release (v) Vibrato

Stave 1:

E|---------------------------------------------------------------------
B|---------------------------------------------------------------------
G|---------------------------------------------------------------------
D|--------2/4--------------2/4--7--5-----------------2--4--2--0--4-----
A|-----0----------------0-------------------------0--------------2-----
D|--0----------------0-------------------------0-----------------0-----

Stave 2:

E|----------------------------------------------------------------------------------------------------
B|----------------------------------------------------------------------------------------------------
G|----------------------------------------------------------------------------------------------------
D|--------2/4--------------4p2p0--2/5p4--7p5-----------------4p2p0--5p4p0--7p5p0--12--11--9--------4--
A|-----0----------------0------------------------------0--0-------------------------------------0-----
D|--0----------------0------------------------------0-------------------------------------------------

Stave 3:

E|--------------------------------------------------------------------------------------------------
B|--------------------------------------------------------------------------------------------------
G|--------0-----------0-----------------------------------------------------------------------------
D|-----4-----4-----4-----4--------4-----------4-----------0-----------0-----------0-----------------
A|--2-----------0--------------5-----5-----5-----5-----2-----2-----2-----2-----0-----0-----0--4-----
D|--------------------------6-----------5-----------2-----------0-----------2-----------2--------5--

							http://www.guitartabcreator.com
Instruments
{"strings":[[[".",".",".",".",".","_","_",".",".",".",".",".",".",".","_","_","_",".",".",".",".",".",".",".","_"],[".",".",".",".",".","_","_",".",".",".",".",".",".",".","_","_","_",".",".",".",".",".",".",".","_"],[".",".",".",".",".","_","_",".",".",".",".",".",".",".","_","_","_",".",".",".",".",".",".",".","_"],[".",".",2,"/",4,"_","_",".",".",2,"/",4,7,5,"_","_","_",".",".",2,4,2,0,4,"_"],[".",0,".",".",".","_","_",".",0,".",".",".",".",".","_","_","_",".",0,".",".",".",".",2,"_"],[0,".",".",".",".","_","_",0,".",".",".",".",".",".","_","_","_",0,".",".",".",".",".",0,"_"]],[[".",".",".",".",".","_","_",".",".",".",".",".",".",".",".",".",".",".",".",".",".",".","_","_",".",".",".",".",".",".",".",".",".",".",".",".",".",".",".",".",".",".",".",".",".","_",".","."],[".",".",".",".",".","_","_",".",".",".",".",".",".",".",".",".",".",".",".",".",".",".","_","_",".",".",".",".",".",".",".",".",".",".",".",".",".",".",".",".",".",".",".",".",".","_",".","."],[".",".",".",".",".","_","_",".",".",".",".",".",".",".",".",".",".",".",".",".",".",".","_","_",".",".",".",".",".",".",".",".",".",".",".",".",".",".",".",".",".",".",".",".",".","_",".","."],[".",".",2,"/",4,"_","_",".",".",4,"p",2,"p",0,2,"/",5,"p",4,7,"p",5,"_","_",".",".",".",4,"p",2,"p",0,5,"p",4,"p",0,7,"p",5,"p",0,12,11,9,"_",".",4],[".",0,".",".",".","_","_",".",0,".",".",".",".",".",".",".",".",".",".",".",".",".","_","_",".",0,0,".",".",".",".",".",".",".",".",".",".",".",".",".",".",".",".",".",".","_",0,"."],[0,".",".",".",".","_","_",0,".",".",".",".",".",".",".",".",".",".",".",".",".",".","_","_",0,".",".",".",".",".",".",".",".",".",".",".",".",".",".",".",".",".",".",".",".","_",".","."]],[[".",".",".",".",".",".",".",".",".",".",".",".",".",".",".",".",".",".",".",".",".",".",".",".",".",".",".",".",".",".",".","."],[".",".",".",".",".",".",".",".",".",".",".",".",".",".",".",".",".",".",".",".",".",".",".",".",".",".",".",".",".",".",".","."],[".",".",0,".",".",".",0,".",".",".",".",".",".",".",".",".",".",".",".",".",".",".",".",".",".",".",".",".",".",".",".","."],[".",4,".",4,".",4,".",4,".",".",4,".",".",".",4,".",".",".",0,".",".",".",0,".",".",".",0,".",".",".",".","."],[2,".",".",".",0,".",".",".",".",5,".",5,".",5,".",5,".",2,".",2,".",2,".",2,".",0,".",0,".",0,4,"."],[".",".",".",".",".",".",".",".",6,".",".",".",5,".",".",".",2,".",".",".",0,".",".",".",2,".",".",".",2,".",".",5]]],"numberofstrings":6,"notes":["E","B","G","D","A","D"],"capo":0,"stringnotes":["E3","B2","G2","D2","A1","D1"],"comments":["Stave 1:","Stave 2:","Stave 3:"],"timing":[["W","W","W",null,"W","W","W","T","T","T","T","T","T","T","W","W","W","T","T","T","T","T","T","T",null,null,null,"W","W"],["T","T","T",null,"T",null,null,"W","W","W","T","W","T","W","W","T","W","T","W","W",null,"W","W","W","W","W","W","W",null,"W","T","W","W","T","W","T","W","W","T","W",null,"W","W","W","W",null,"W","W"],["T","T","T","T","T","T","T","T","T","T","T","T","T","T","T","T","T","T","T","T","T","T","T","T","T","T","T","T","T","T","T","T"]],"timingvisible":false,"tabcounter":25,"stave":0,"totalstaves":3,"instrument":"6guitar","selectedtuning":"Drop D","version":"13"}

Member for

1 month 2 weeks
Submitted by TheLonePiper on Tue, 2020-12-01 21:15