Sound will begin in 5 seconds

PPA pt. 1

01234567891011121314151617181920212223
E
B
G
D
A
E
B
0 1 2 3 4 5 6 7 8 9 10 11 12 13 14 15 16 17 18 19 20 21 22 23
Song Science #1: How Pros Use 6 Chords to Write Hit Songs
(/) Slide Up  (\) Slide Down  (h) Hammer On  (p) Pull Off  (b) Bend (r) Release (v) Vibrato

Stave 1:

E|--------------------------------------------------------------------
B|----------3--2h3p2--------------------------------------------------
G|--2-----------------3--0--2--------2---------------------2--3--2----
D|-----2h3------------------------3-----5--3--2/3--3/5--5-------------
A|-----------------------------5--------------------------------------
E|--------------------------------------------------------------------

Stave 2:

E|----------------------------------------------------------5--
B|--------3--2h3p2---------------------------------------5-----
G|------------------3--0--2--------2------------------6--------
D|--2--3------------------------3-----5--3--2/3--3/5-----------
A|---------------------------5---------------------------------
E|-------------------------------------------------------------

Stave 3:

E|---------10--9h10p9------------------------------------------------------------
B|---------------------11--8--10---------10--8-----------------------13--11--10--
G|--7--10-------------------------7--10---------10--9/10--10/12--12--------------
D|-------------------------------------------------------------------------------
A|-------------------------------------------------------------------------------
E|-------------------------------------------------------------------------------

Stave 4:

E|-----------10--9h10p9------------------------------------------------------------------
B|-----------------------11--8--10---------10--8-----------------------------------------
G|----7--10-------------------------7--10---------10--9/10--10/12--12--14--13--12h13p12--
D|---------------------------------------------------------------------------------------
A|---------------------------------------------------------------------------------------
E|---------------------------------------------------------------------------------------

Stave 5:

E|----
B|----
G|----
D|----
A|----
E|----

http://www.guitartabcreator.com
Guitar Tab Creator is intended to store guitar tab created through the tool. It currently does not support in-line text editing. Any text you place in here will be lost. If you need to comment on your tab, please use the "Tab Notes" section located below.