Sound will begin in 5 seconds

Canon in D - Pachelbel

Chords
01234567891011121314151617181920212223
E
B
G
D
A
E
B
0 1 2 3 4 5 6 7 8 9 10 11 12 13 14 15 16 17 18 19 20 21 22 23
Song Science #1: How Pros Use 6 Chords to Write Hit Songs
(/) Slide Up  (\) Slide Down  (h) Hammer On  (p) Pull Off  (b) Bend (r) Release (v) Vibrato

Stave 1:

E|-----------2--------------------------------------------------------------------------------------
B|--------3--------------2-----------3-----------2-----------0-----------3-----------2-----------2--
G|-----2--------------2-----------4-----------2-----------0-----------2-----------0-----------2-----
D|--0--------------2-----------4-----------4-----------0-----------4-----------0-----------2--------
A|--------------0-----------2-----------------------------------------------------------0-----------
D|--------------------------------------4-----------5-----------0-----------5-----------------------

Stave 2:

E|--2-----------0-----------------------------------------------------------------------------------
B|--------3-----------2-----3-----------2-----------0-----------------------0-----------2-----------
G|-----2-----2-----2-----2--------4-----------2-----------0-----2-----------------0-----------2-----
D|-----------------------------4-----4-----4-----4-----0-----0--------4--------0-----0-----2-----2--
A|--------------0-----------2--------------------------------------5-----5--------------0-----------
D|--0-----------------------------------4-----------5-----------0-----------5-----------------------

Stave 3:

E|--2-----------0-----------------------------------------------------------------------------------
B|--3-----3-----2-----2-----3-----------2-----------0-----------------------0-----------2-----------
G|--------2-----------2-----4-----4-----2-----2-----0-----0-----2-----------0-----0-----2-----2-----
D|-----0-----0-----2-----2-----4--4--4-----4--4--4-----0--0--0--4-----4--------0--0--0-----2--2--2--
A|--------------0-----------2--------------------------------------5--5--5--------------0-----------
D|--0-----------------------------------4-----------5-----------0-----------5-----------------------

Stave 4:

E|--------2-----5-----3-----2-----------2-----0-----------------------------------------------------
B|--3-----3-----------2-----3-----3-----------------3-----0-----3-----------3-----0-----3-----2-----
G|-----2-----2-----2-----2--------4-----------------------0-----------2-----------0-----------2-----
D|--0--------------------------4-----4-----4-----4-----0-----0-----4-----4-----0-----0-----2-----2--
A|--------------0-----------2-----------------------------------------5-----------------0-----------
D|--------------------------------------4-----------5-----------0-----------5-----------------------

Stave 5:

E|--------------------------------------------5--7--3--2--0--3--2--0--------------------------------
B|--3--2--3--------------------3--2--0-----7--------------------------3--2--0-----------------------
G|-----------------2--------------------6--------------------------------------2--0--------0--------
D|-----------0--------2--4--0--------------------------------------------------------4--2-----4--2--
A|--------------0-----------2-----------------------------------------------------------0-----------
D|--0-----------------------------------4-----------5-----------0-----------5-----------------------

Stave 6:

E|--------------------------------------------------------------------------------------------------
B|-----------------------------0-----------------------------------------------------0-----0--------
G|-----------0--2-----2--0--------2--0--2--0--------0--------0--------------0-----------2-----2--0--
D|--0--2--4--------2--------4-----------------4--2-----4--2-----4--2--0--4-----4--2-----------------
A|--------------0-----------2-----------------------------------------------------------0-----------
D|--0-----------------------------------4-----------5-----------0-----------5-----------------------

Stave 7:

E|--5--2--3--5--2--3--5--------------0--2--3--2-----0--2--------------------------------------------
B|--------------------------0--2--3--------------3-----------------------------------------0--------
G|-----------------------2-----------------------------------0--2--4--2--0--2-----0--2--0-----2--0--
D|--------------------------------------------------------4--------------------4--------------------
A|--------------------0-----------------------2-----------------------------------------------------
D|--0-----------------------------------------------------------4-----------------------5-----------

Stave 8:

E|--------------------------------------------------------------0--2--3--5--2-----0--2--0-----0-----
B|-----------------------------------0-----0--2--3-----0--2--3-----------------3-----------3-----2--
G|-----------------------0--2--4--0-----2-----------2-----------------------------------------------
D|--4--2--4--2--0--2--4-----------------------------------------------------------------------------
A|--------------------------------------------------0-----------------------------------------0-----
D|--------0-----------------------5-----------------------------------------0-----------------------

Stave 9:

E|-----0--2--0--------------------------------------------------------------------------------------
B|--3-----------3--2--3--0--2--3-----------------------3--2--3--0--3--2--0-----------------------0--
G|-----------------------------------------0--------------------------------2--0--2--0-----0--2-----
D|--------------------------------0--2--4-----4--2--4-----------------------------------4-----------
A|--------------------2-----------------------------------------------------------------------------
D|--------------------------------------4-----------------------5-----------------0-----------------

Stave 10:

E|-----------------------------------------------------------2--2--3--2--0-----------------0--------
B|--2--3--0--3--2--3--2--0--2--3--5--3--2--3--0--2--3-----------2-----------3--------3--3-----3--2--
G|--------------------------------------------------------2-----2-----------------4-----------------
D|-----------------------------------------------------4--------2--------------4--------------------
A|--------------------------0-----------------------------------0-----------2-----------------------
D|--------5-----------------------------------------0-----------------------------------4-----------

Stave 11:

E|-----------------------------------------------------------5--5--7--5--3--2--------2--2--3--2--0--
B|--0-----0-----3-----3-----3--------------------2--3--------7--7--8--7--5--3-----3-----3-----------
G|-----0-----0-----------------5--4--5--2-----2-----2-----2--------------------4--------------------
D|-----------------4-----4-----------------2--------4--4--------------------------------------------
A|--------------------------------------0-----------------------0-----------2-----------------------
D|--5-----------0-----------5-----------------------0-----------------------------------4-----------

Stave 12:

E|--------------------------------------------------------10-----------9------------7-----------5--
B|--3-----------------------3-----------2--------2--3-----10-----------10-----------7-----------5--
G|-----5--4--5--2-----2--------5--4--5--------2-----2-----11--------9------------7-----------6-----
D|-----------------4-----0-----------------2--------4---------0------------------------------------
A|--------------0-----------------------0------------------------0---------0-----------------------
D|--5-----------------------5-----------------------0-------------------------9--------9--7--------

Stave 13:

E|-----------3-----------2----------------------------------------------0-----2--
B|-----------3-----------3--------------3/5--5--7-----3--------------3-----------
G|--------4-----------2--------------0-------6--------------------2--------------
D|--------------------------------0----------7-----------------4-----------------
A|-------------------------------------------0--------------0--------------------
D|--7--5--------5--4--------4--5-------------------------0-----------------------

http://www.guitartabcreator.com
Guitar Tab Creator is intended to store guitar tab created through the tool. It currently does not support in-line text editing. Any text you place in here will be lost. If you need to comment on your tab, please use the "Tab Notes" section located below.