Sound will begin in 5 seconds

kj

Chords
01234567891011121314151617181920212223
E
B
G
D
A
E
B
0 1 2 3 4 5 6 7 8 9 10 11 12 13 14 15 16 17 18 19 20 21 22 23
Song Science #1: How Pros Use 6 Chords to Write Hit Songs
(/) Slide Up  (\) Slide Down  (h) Hammer On  (p) Pull Off  (b) Bend (r) Release (v) Vibrato

Stave 1:

Eb|-----|-----|--------|-----|----------|----------|------12--15--14--17--|--------------
Ab|-----|-----|--------|-----|--12--10--|----------|--15------------------|--0--0--0--0--
Db|-----|-----|--------|-----|----------|--12------|----------------------|--2--2--2--2--
Gb|--0--|--2--|--4--0--|--5--|----------|------12--|----------------------|--3--3--3--3--
Bb|--2--|--3--|--5--5--|--5--|----------|----------|----------------------|--5--5--5--5--
Eb|--3--|--3--|--5--5--|--3--|----------|----------|----------------------|--------------

Stave 2:

Eb|-------------10--|------8------|----------------|----------------|-------------10--|--13--10--8------|-------------8--10------|---------------
Ab|--8--10--11------|--10-----11--|--8-------------|----------------|--8--10--11------|-------------11--|--8--10--11-------------|--8--8------8--
Db|-----------------|-------------|-----10--9------|--7-------------|-----------------|-----------------|--------------------10--|--------10-----
Gb|-----------------|-------------|------------10--|-----8----------|-----------------|-----------------|------------------------|---------------
Bb|-----------------|-------------|----------------|--------10------|-----------------|-----------------|------------------------|---------------
Eb|-----------------|-------------|----------------|------------10--|-----------------|-----------------|------------------------|---------------

http://www.guitartabcreator.com
Guitar Tab Creator is intended to store guitar tab created through the tool. It currently does not support in-line text editing. Any text you place in here will be lost. If you need to comment on your tab, please use the "Tab Notes" section located below.