Redbone ~ Childish Gambino

Chords

01234567891011121314151617181920212223
E
B
G
D
A
E
B
0 1 2 3 4 5 6 7 8 9 10 11 12 13 14 15 16 17 18 19 20 21 22 23
(/) Slide Up  (\) Slide Down  (h) Hammer On  (p) Pull Off  (b) Bend (r) Release (v) Vibrato

Stave 1:

E|--5/6---------------------------------9--6--------------------------6-----5/6---------------------------------9--6-------------
B|-------9--7--5/6----------------7-----------6--7--9--7--------6--7-------------9--7--5/6----------------7----------------------
G|------------------6-----6h8--6-----8-----------------------8-----------8------------------6-----6h8--6-----8--------7h9--7-----
D|---------------------8----------------------------------8------------------------------------8------------------------------8--
A|-------------------------------------------------------------------------------------------------------------------------------
E|-------------------------------------------------------------------------------------------------------------------------------

Stave 2:

E|-------------------------------------------------------------------------------------------------------------------------------------
B|--10/11--10/11--11------11--12--11--------------------------------10/11--10/11------11--12--11---------------------------------------
G|--------------------11--------------13--11--13/14\13--11------11----------------11--------------13--11--13/14\13--11------11--13/15--
D|----------------------------------------------------------13----------------------------------------------------------13-------------
A|-------------------------------------------------------------------------------------------------------------------------------------
E|-------------------------------------------------------------------------------------------------------------------------------------

Stave 3:

E|------------------
B|--14--16----------
G|----------13--11--
D|------------------
A|------------------
E|------------------

							http://www.guitartabcreator.com
Instruments
{"strings":[[[5,"/",6,".",".",".",".",".",".",".",".",".",".",".",".",".",9,6,".",".",".",".",".",".",".",".",6,".",5,"/",6,".",".",".",".",".",".",".",".",".",".",".",".",".",9,6,".",".",".",".","."],[".",".",".",9,7,5,"/",6,".",".",".",".",".",".",7,".",".",".",6,7,9,7,".",".",6,7,".",".",".",".",".",9,7,5,"/",6,".",".",".",".",".",".",7,".",".",".",".",".",".",".","."],[".",".",".",".",".",".",".",".",6,".",6,"h",8,6,".",8,".",".",".",".",".",".",".",8,".",".",".",8,".",".",".",".",".",".",".",".",6,".",6,"h",8,6,".",8,".",".",7,"h",9,7,"."],[".",".",".",".",".",".",".",".",".",8,".",".",".",".",".",".",".",".",".",".",".",".",8,".",".",".",".",".",".",".",".",".",".",".",".",".",".",8,".",".",".",".",".",".",".",".",".",".",".",".",8],[".",".",".",".",".",".",".",".",".",".",".",".",".",".",".",".",".",".",".",".",".",".",".",".",".",".",".",".",".",".",".",".",".",".",".",".",".",".",".",".",".",".",".",".",".",".",".",".",".",".","."],[".",".",".",".",".",".",".",".",".",".",".",".",".",".",".",".",".",".",".",".",".",".",".",".",".",".",".",".",".",".",".",".",".",".",".",".",".",".",".",".",".",".",".",".",".",".",".",".",".",".","."]],[[".",".",".",".",".",".",".",".",".",".",".",".",".",".",".",".",".",".",".",".",".",".",".",".",".",".",".",".",".",".",".",".",".",".",".",".",".",".",".",".",".",".",".","."],[10,"/",11,10,"/",11,11,".",11,12,11,".",".",".",".",".",".",".",".",".",".",10,"/",11,10,"/",11,".",11,12,11,".",".",".",".",".",".",".",".",".",".",".",".","."],[".",".",".",".",".",".",".",11,".",".",".",13,11,13,"/",14,"\\",13,11,".",11,".",".",".",".",".",".",11,".",".",".",13,11,13,"/",14,"\\",13,11,".",11,13,"/",15],[".",".",".",".",".",".",".",".",".",".",".",".",".",".",".",".",".",".",".",13,".",".",".",".",".",".",".",".",".",".",".",".",".",".",".",".",".",".",".",13,".",".",".","."],[".",".",".",".",".",".",".",".",".",".",".",".",".",".",".",".",".",".",".",".",".",".",".",".",".",".",".",".",".",".",".",".",".",".",".",".",".",".",".",".",".",".",".","."],[".",".",".",".",".",".",".",".",".",".",".",".",".",".",".",".",".",".",".",".",".",".",".",".",".",".",".",".",".",".",".",".",".",".",".",".",".",".",".",".",".",".",".","."]],[[".",".",".","."],[14,16,".","."],[".",".",13,11],[".",".",".","."],[".",".",".","."],[".",".",".","."]]],"numberofstrings":6,"notes":["E","B","G","D","A","E","B"],"capo":0,"stringnotes":["E4","B3","G3","D3","A2","E2"],"comments":["Stave 1:","Stave 2:","Stave 3:"],"timing":[["W",null,"W","W","W","W",null,"W","W","W","W",null,"W","W","W","W","W","W","W","W","W","W","W","W","W","W","W","W","W",null,"W","W","W","W",null,"W","W","W","W",null,"W","W","W","W","W","W","W",null,"W","W","W"],["W",null,"W","W",null,"W","W","W","W","W","W","W","W","W",null,"W",null,"W","W","W","W","W",null,"W","W",null,"W","W","W","W","W","W","W","W",null,"W",null,"W","W","W","W","W",null,"W"],["W","W","W","W"]],"timingvisible":false,"tabcounter":4,"stave":2,"totalstaves":3,"instrument":"6guitar","selectedtuning":"6_standard","version":"13"}

Member for

5 days 1 hour
Submitted by thecondor on Mon, 2021-01-11 09:03