Summer Days

01234567891011121314151617181920212223
E
B
G
D
A
E
B
0 1 2 3 4 5 6 7 8 9 10 11 12 13 14 15 16 17 18 19 20 21 22 23
(/) Slide Up  (\) Slide Down  (h) Hammer On  (p) Pull Off  (b) Bend (r) Release (v) Vibrato

Stave 1:

E|--0--0--0--
B|--3--8--7--
G|--5--9--7--
D|--5--9--7--
A|--0--0--0--
E|-----------

Stave 2:

E|------------------7-------------------------------------7---------------------------------------------
B|--------7--8--10-----------7--8--10--7--------7--8--10-----10--10b12r10--10--8--10--8--10--7--7h8-----
G|-----7------------------7------------------7-------------------------------------------------------7--
D|--7------------------7------------------7-------------------------------------------------------------
A|------------------------------------------------------------------------------------------------------
E|------------------------------------------------------------------------------------------------------

							http://www.guitartabcreator.com
Chords

Instruments
{"strings":[[[0,0,0],[3,8,7],[5,9,7],[5,9,7],[0,0,0],[".",".","."]],[[".",".",".",".",".",7,".",".",".",".",".",".",".",".",".",".",".",7,".",".",".",".",".",".",".",".",".",".",".",".",".",".",".","."],[".",".",7,8,10,".",".",".",7,8,10,7,".",".",7,8,10,".",10,10,"b",12,"r",10,10,8,10,8,10,7,7,"h",8,"."],[".",7,".",".",".",".",".",7,".",".",".",".",".",7,".",".",".",".",".",".",".",".",".",".",".",".",".",".",".",".",".",".",".",7],[7,".",".",".",".",".",7,".",".",".",".",".",7,".",".",".",".",".",".",".",".",".",".",".",".",".",".",".",".",".",".",".",".","."],[".",".",".",".",".",".",".",".",".",".",".",".",".",".",".",".",".",".",".",".",".",".",".",".",".",".",".",".",".",".",".",".",".","."],[".",".",".",".",".",".",".",".",".",".",".",".",".",".",".",".",".",".",".",".",".",".",".",".",".",".",".",".",".",".",".",".",".","."]]],"numberofstrings":6,"notes":["E","B","G","D","A","E","B"],"capo":0,"stringnotes":["E4","B3","G3","D3","A2","E2"],"comments":["Stave 1:","Stave 2:"],"timing":[[null,null,null],[null,null,null,null,null,null,null,null,null,null,null,null,null,null,null,null,null,null,null,null,null,null,null,null,null,null,null,null,null,null,null,null,null,null]],"timingvisible":false,"tabcounter":34,"stave":1,"totalstaves":2,"instrument":"6guitar","selectedtuning":"6_standard","version":"13"}

Member for

5 years 4 months
Submitted by TheCamelGuitar on Thu, 2022-05-19 05:15