Sound will begin in 5 seconds

Stay With Me Sam Smith

01234567891011121314151617181920212223
E
B
G
D
A
E
B
0 1 2 3 4 5 6 7 8 9 10 11 12 13 14 15 16 17 18 19 20 21 22 23
Song Science #1: How Pros Use 6 Chords to Write Hit Songs
(/) Slide Up  (\) Slide Down  (h) Hammer On  (p) Pull Off  (b) Bend (r) Release (v) Vibrato

Stave 1:

E|------------------------------------------
B|------------------------------------------
G|--5--7--7/9--5--7--7/9--5--7--7/9--5--5v--
D|------------------------------------------
A|------------------------------------------
E|------------------------------------------

Stave 2:

E|-------------------------------------------
B|--------------------------------8----------
G|--5--7--7/9--5--7/9--5--7--7/9-----9v--\7--
D|-------------------------------------------
A|-------------------------------------------
E|-------------------------------------------

Stave 3:

E|-----------------------------------------------------------------------------
B|--8h10--8--------------------------------------------------------------------
G|-----------9--7--7\5--5--------------5--7--7/9--5--7--7/9--5--7--7/9--5--5v--
D|-------------------------5---------------------------------------------------
A|----------------------------8--7v--------------------------------------------
E|-----------------------------------------------------------------------------

Stave 4:

E|---------------------------------------------
B|----------8--8h10--8--8----------8v--5v------
G|--5--7/9--------------9----5--7--9---5---5---
D|----------------------10v----------------5v--
A|---------------------------------------------
E|---------------------------------------------

Stave 5:

E|--------------------7-----------------------------------------------------
B|----------8--8h10v-----10\8--8--------------------------------8---5-------
G|--5--7/9------------------------7/9v--7/8\7--5v--h7--9--7/9v--9v--5v--5---
D|----------------------------------------------------------------------5v--
A|--------------------------------------------------------------------------
E|--------------------------------------------------------------------------

Stave 6:

E|-----------------------------------------------------------------------
B|----------------------------------------------------------8------------
G|--5--7--7/9--5--7--7/9--5--5v--5--7--9--5--7--9--5--7--7-----7/9v--p7--
D|-----------------------------------------------------------------------
A|-----------------------------------------------------------------------
E|-----------------------------------------------------------------------

Stave 7:

E|-----------------------------------------------------------------------------------------------
B|--13--10h12--12\10--8--8-----------------------------------------------------6-----------------
G|--------------------------9--10--9/10\9--7p5--7/9--7\9v--------5--5--7--7/9-----9\7--5--5--5v--
D|-----------------------------------------------------------------------------------------------
A|-----------------------------------------------------------------------------------------------
E|-----------------------------------------------------------------------------------------------

Stave 8:

E|--
B|--
G|--
D|--
A|--
E|--

http://www.guitartabcreator.com
Guitar Tab Creator is intended to store guitar tab created through the tool. It currently does not support in-line text editing. Any text you place in here will be lost. If you need to comment on your tab, please use the "Tab Notes" section located below.