Sound will begin in 5 seconds

Hey brother

01234567891011121314151617181920212223
E
B
G
D
A
E
B
0 1 2 3 4 5 6 7 8 9 10 11 12 13 14 15 16 17 18 19 20 21 22 23
Song Science #1: How Pros Use 6 Chords to Write Hit Songs
(/) Slide Up  (\) Slide Down  (h) Hammer On  (p) Pull Off  (b) Bend (r) Release (v) Vibrato

Stave 1:

E|-------------------------------------------------------
B|-------------------------------------------------------
G|--0/5v---------5--7/9\7--5-------------------------5v--
D|--------5--7v---------------7b8r7--5--5h7--5--0/7------
A|-------------------------------------------------------
E|-------------------------------------------------------

Stave 2:

E|-------------------------------------------------------------
B|-------------------------------------------------------------
G|--2b5r2b5v-----------5--7/9\7--5-------------------------5v--
D|------------0/5--7v---------------7b8r7--5--5h7--5--0/7------
A|-------------------------------------------------------------
E|-------------------------------------------------------------

Stave 3:

E|-------------------------------------------------------------------------------
B|-------------------------------------------------------------------------------
G|--5/7v--5--7--7/9--7--5-----0/7v--7--7v--5--7/9--9--9--7-----------------------
D|-------------------------7--------------------------------7--7--7--5--7/10\7v--
A|-------------------------------------------------------------------------------
E|-------------------------------------------------------------------------------

Stave 4:

E|-----------------------------------------------------------------------
B|--13v-----------13--15b17r15--13---------------------------------------
G|-------12--14v--------------------14b16r14--12--12h14--12--------------
D|-----------------------------------------------------------14\12--10v--
A|-----------------------------------------------------------------------
E|-----------------------------------------------------------------------

Stave 5:

E|-----------------------------------------------------------------------------
B|--13v--13--15----------13--15b17r15--13---------------------------------13v--
G|---------------12h14v--------------------14b16r14--12--12/14--12--0/14-------
D|-----------------------------------------------------------------------------
A|-----------------------------------------------------------------------------
E|-----------------------------------------------------------------------------

Stave 6:

E|--------------------------------------------------------------------------
B|--13b15r13b15v--13--15--15b17--15--13------13b15r13b15v--18--15--18--15v--
G|---------------------------------------14---------------------------------
D|--------------------------------------------------------------------------
A|--------------------------------------------------------------------------
E|--------------------------------------------------------------------------

Stave 7:

E|----------------------------------------------------12--15b17--
B|------15b17--17--17r15--13----------------------13-------------
G|--14------------------------14--14--14--12--14-----------------
D|---------------------------------------------------------------
A|---------------------------------------------------------------
E|---------------------------------------------------------------

Stave 8:

E|--------------------------------15--17b18r17--15v--
B|--13--12b13r12-------13--15/17---------------------
G|----------------14v--------------------------------
D|---------------------------------------------------
A|---------------------------------------------------
E|---------------------------------------------------

Stave 9:

E|--------------------------------------------------------
B|--17--17--17--17--13--13--17--15---0/13--12b13r12-------
G|---------------------------------------------------14v--
D|--14--14--14--14--10--10--14--12v-----------------------
A|--------------------------------------------------------
E|--------------------------------------------------------

Stave 10:

E|--
B|--
G|--
D|--
A|--
E|--

Stave 11:

E|--
B|--
G|--
D|--
A|--
E|--

Stave 12:

E|--
B|--
G|--
D|--
A|--
E|--

http://www.guitartabcreator.com
Guitar Tab Creator is intended to store guitar tab created through the tool. It currently does not support in-line text editing. Any text you place in here will be lost. If you need to comment on your tab, please use the "Tab Notes" section located below.