Mission in the Rain

01234567891011121314151617181920212223
E
B
G
D
A
E
B
0 1 2 3 4 5 6 7 8 9 10 11 12 13 14 15 16 17 18 19 20 21 22 23
(/) Slide Up  (\) Slide Down  (h) Hammer On  (p) Pull Off  (b) Bend (r) Release (v) Vibrato

Stave 1:

E|-----------------------------------------------------------------------------------------------------------------------------------
B|-----------------------------------------------------------------------------------------------------------------------------------
G|--9--8--9\8--9--9--9--9/11--9\6--7--7--6--------6--7p6--------7--7--9--6--------6--4--------------4-----------4--6--------6--4-----
D|------------------------------------------9--7----------9--7--------------9--7--------7--4--6--7-----6--7--7--------4--7--------7--
A|-----------------------------------------------------------------------------------------------------------------------------------
E|-----------------------------------------------------------------------------------------------------------------------------------

Stave 2:

E|--------------------------------------------4-----4--5--4--5--6--5--6--7-----12--11--12--12b14--12--10--12p10--9--7--8b9--9b10r9p7\5--
B|-----------------------------------5-----5-----5--------------------------------------------------------------------------------------
G|--------------------------4-----4-----4-----------------------------------------------------------------------------------------------
D|--6-----6-----6--7--4--7-----6--------------------------------------------------------------------------------------------------------
A|-----7-----7--------------------------------------------------------------------------------------------------------------------------
E|--------------------------------------------------------------------------------------------------------------------------------------

Stave 3:

E|--10--10--12--9----------9/10---------------------------------------9-------------------------------------------------------------10v----------------------------12--
B|-----------------12--10--------12--10-----9--10--12--9--10--10--12-----10------10--12--9r9--9--------9--12--10p9--10--10------10---------------------12------12------
G|---------------------------------------0-----------------------------------11---------------------9-----------------------11-----------11--11h12h13------13----------
D|-----------------------------------------------------------------------------------------------9---------------------------------------------------------------------
A|---------------------------------------------------------------------------------------------------------------------------------------------------------------------
E|---------------------------------------------------------------------------------------------------------------------------------------------------------------------

Stave 4:

E|--12v---------------------------------------------------------------------14---------------------------------------------------------------------------------------
B|---------------12-------------14-------------14h15------15/16--17-------------17--14-------------------------------------15----------17------------------------19--
G|-----------11-------------13-------------14---------14-------------16b18--------------16b18--16--16----------16--------------16----------18--18/19--17/18--19------
D|-------12----------12/14----------14/16--------------------------------------------------------------14--16------14--16----------16--------------------------------
A|-------------------------------------------------------------------------------------------------------------------------------------------------------------------
E|-------------------------------------------------------------------------------------------------------------------------------------------------------------------

Stave 5:

E|----------17--19--17v--
B|--18--19---------------
G|-----------------------
D|-----------------------
A|-----------------------
E|-----------------------

							http://www.guitartabcreator.com
Chords

Instruments
{"strings":[[[".",".",".",".",".",".",".",".",".",".",".",".",".",".",".",".",".",".",".",".",".",".",".",".",".",".",".",".",".",".",".",".",".",".",".",".",".",".",".",".",".",".",".",".",".",".",".","."],[".",".",".",".",".",".",".",".",".",".",".",".",".",".",".",".",".",".",".",".",".",".",".",".",".",".",".",".",".",".",".",".",".",".",".",".",".",".",".",".",".",".",".",".",".",".",".","."],[9,8,9,"\\",8,9,9,9,9,"/",11,9,"\\",6,7,7,6,".",".",6,7,"p",6,".",".",7,7,9,6,".",".",6,4,".",".",".",".",4,".",".",".",4,6,".",".",6,4,"."],[".",".",".",".",".",".",".",".",".",".",".",".",".",".",".",".",".",9,7,".",".",".",".",9,7,".",".",".",".",9,7,".",".",7,4,6,7,".",6,7,7,".",".",4,7,".",".",7],[".",".",".",".",".",".",".",".",".",".",".",".",".",".",".",".",".",".",".",".",".",".",".",".",".",".",".",".",".",".",".",".",".",".",".",".",".",".",".",".",".",".",".",".",".",".",".","."],[".",".",".",".",".",".",".",".",".",".",".",".",".",".",".",".",".",".",".",".",".",".",".",".",".",".",".",".",".",".",".",".",".",".",".",".",".",".",".",".",".",".",".",".",".",".",".","."]],[[".",".",".",".",".",".",".",".",".",".",".",".",".",".",4,".",4,5,4,5,6,5,6,7,"_",12,11,12,12,"b",14,12,10,12,"p",10,9,7,8,"b",9,9,"b",10,"r",9,"p",7,"\\",5],[".",".",".",".",".",".",".",".",".",".",".",5,".",5,".",5,".",".",".",".",".",".",".",".","_",".",".",".",".",".",".",".",".",".",".",".",".",".",".",".",".",".",".",".",".",".",".",".",".","."],[".",".",".",".",".",".",".",".",4,".",4,".",4,".",".",".",".",".",".",".",".",".",".",".","_",".",".",".",".",".",".",".",".",".",".",".",".",".",".",".",".",".",".",".",".",".",".",".",".","."],[6,".",6,".",6,7,4,7,".",6,".",".",".",".",".",".",".",".",".",".",".",".",".",".","_",".",".",".",".",".",".",".",".",".",".",".",".",".",".",".",".",".",".",".",".",".",".",".",".","."],[".",7,".",7,".",".",".",".",".",".",".",".",".",".",".",".",".",".",".",".",".",".",".",".","_",".",".",".",".",".",".",".",".",".",".",".",".",".",".",".",".",".",".",".",".",".",".",".",".","."],[".",".",".",".",".",".",".",".",".",".",".",".",".",".",".",".",".",".",".",".",".",".",".",".","_",".",".",".",".",".",".",".",".",".",".",".",".",".",".",".",".",".",".",".",".",".",".",".",".","."]],[[10,10,12,9,".",".",9,"/",10,".",".",".",".",".",".",".",".",".",".",9,".",".",".",".",".",".",".",".",".",".",".",".",".",".",".",".",".",".",".",10,"v",".",".",".",".",".",".",".",".",".",12],[".",".",".",".",12,10,".",".",".",12,10,".",9,10,12,9,10,10,12,".",10,".",10,12,9,"r",9,9,".",".",9,12,10,"p",9,10,10,".",10,".",".",".",".",".",".",".",".",12,".",12,"."],[".",".",".",".",".",".",".",".",".",".",".",0,".",".",".",".",".",".",".",".",".",11,".",".",".",".",".",".",".",9,".",".",".",".",".",".",".",11,".",".",".",11,11,"h",12,"h",13,".",13,".","."],[".",".",".",".",".",".",".",".",".",".",".",".",".",".",".",".",".",".",".",".",".",".",".",".",".",".",".",".",9,".",".",".",".",".",".",".",".",".",".",".",".",".",".",".",".",".",".",".",".",".","."],[".",".",".",".",".",".",".",".",".",".",".",".",".",".",".",".",".",".",".",".",".",".",".",".",".",".",".",".",".",".",".",".",".",".",".",".",".",".",".",".",".",".",".",".",".",".",".",".",".",".","."],[".",".",".",".",".",".",".",".",".",".",".",".",".",".",".",".",".",".",".",".",".",".",".",".",".",".",".",".",".",".",".",".",".",".",".",".",".",".",".",".",".",".",".",".",".",".",".",".",".",".","."]],[[12,"v",".",".",".",".",".",".",".",".",".",".",".",".",".",".",".",".",".",".",".",".",".",".",".",14,".",".",".",".",".",".",".",".",".",".",".",".",".",".",".",".",".",".",".",".",".",".",".",".","."],[".",".",".",".",12,".",".",".",".",14,".",".",".",".",14,"h",15,".",15,"/",16,17,".",".",".",".",17,14,".",".",".",".",".",".",".",".",".",".",15,".",".",17,".",".",".",".",".",".",".",".",19],[".",".",".",11,".",".",".",".",13,".",".",".",".",14,".",".",".",14,".",".",".",".",16,"b",18,".",".",".",16,"b",18,16,16,".",".",16,".",".",".",16,".",".",18,18,"/",19,17,"/",18,19,"."],[".",".",12,".",".",12,"/",14,".",".",14,"/",16,".",".",".",".",".",".",".",".",".",".",".",".",".",".",".",".",".",".",".",".",14,16,".",14,16,".",".",16,".",".",".",".",".",".",".",".",".","."],[".",".",".",".",".",".",".",".",".",".",".",".",".",".",".",".",".",".",".",".",".",".",".",".",".",".",".",".",".",".",".",".",".",".",".",".",".",".",".",".",".",".",".",".",".",".",".",".",".",".","."],[".",".",".",".",".",".",".",".",".",".",".",".",".",".",".",".",".",".",".",".",".",".",".",".",".",".",".",".",".",".",".",".",".",".",".",".",".",".",".",".",".",".",".",".",".",".",".",".",".",".","."]],[[".",".",17,19,17,"v"],[18,19,".",".",".","."],[".",".",".",".",".","."],[".",".",".",".",".","."],[".",".",".",".",".","."],[".",".",".",".",".","."]]],"numberofstrings":6,"notes":["E","B","G","D","A","E","B"],"capo":0,"stringnotes":["E4","B3","G3","D3","A2","E2"],"comments":["Stave 1:","Stave 2:","Stave 3:","Stave 4:","Stave 5:"],"timing":[["W","W","W",null,"W","W","W","W","W",null,"W","W",null,"W","W","W","W","W","W","W","W",null,"W","W","W","W","W","W","W","W","W","W","W","W","W","W","W","W","W","W","W","W","W","W","W","W","W","W","W","W","W"],["W","W","W","W","W","W","W","W","W","W","W","W","W","W","W","W","W","W","W","W","W","W","W","W",null,"W","W","W","W",null,"W","W","W","W",null,"W","W","W","W",null,"W","W",null,"W",null,"W",null,"W",null,"W","W"],["W","W","W","W","W","W","W",null,"W","W","W","W","W","W","W","W","W","W","W","W","W","W","W","W","W",null,"W","W","W","W","W","W","W",null,"W","W","W","W","W","W",null,"W","W",null,"W",null,"W","W","W","W","W"],["W",null,"W","W","W","W",null,"W","W","W","W",null,"W","W","W",null,"W","W","W",null,"W","W","W",null,"W","W","W","W","W",null,"W","W","W","W","W","W","W","W","W","W","W","W","W","W",null,"W","W",null,"W","W","W"],["W","W","W","W","W"]],"timingvisible":false,"tabcounter":6,"stave":4,"totalstaves":5,"instrument":"6guitar","selectedtuning":"6_standard","version":"13"}

Member for

2 months
Submitted by tgriffin on Fri, 2021-03-05 21:33