Sound will begin in 5 seconds

Police 3 Part Ending

01234567891011121314151617181920212223
E
B
G
D
A
E
B
0 1 2 3 4 5 6 7 8 9 10 11 12 13 14 15 16 17 18 19 20 21 22 23
Song Science #1: How Pros Use 6 Chords to Write Hit Songs
(/) Slide Up  (\) Slide Down  (h) Hammer On  (p) Pull Off  (b) Bend (r) Release (v) Vibrato

Stave 1:

E|--------------------------------------
B|--------------------------------------
G|--------------------------------------
D|--7--5--4--5--4--------5--2--1-----4--
A|-----------------6--3-----------2-----
E|--------------------------------------

Stave 2:

E|--------------------------------------
B|--------------------------------------
G|-----------------------------------8--
D|--7--5--4--5--4--------5--2-----7-----
A|-----------------6--3--------6--------
E|--------------------------------------

Stave 3:

E|---------------------------------------------
B|---------------------------------------------
G|-----------------11--8------9--12--11--8-----
D|--10--12--9--12---------10----------------9--
A|---------------------------------------------
E|---------------------------------------------

Stave 4:

E|-----------------------------------------------
B|---------------------------------------10--12--
G|-----------------11--8------9--12--11----------
D|--10--12--9--12---------10---------------------
A|-----------------------------------------------
E|-----------------------------------------------

Stave 5:

E|-------------------------------------------
B|-------------------------------------------
G|-------------------------------------------
D|--10--9--7--9--7---------12---------9--13--
A|------------------9--10------10--9---------
E|-------------------------------------------

Stave 6:

E|------------------------------------------------
B|------------------------------------------------
G|----------------------------------------12--14--
D|--14--9------12--9----------12--14--10----------
A|---------12---------12--10----------------------
E|------------------------------------------------

Stave 7:

E|------------------------------------------------
B|--13----------12--------------------------------
G|------12----------14----------------------------
D|----------14----------10------12---------9--13--
A|--------------------------10------10--9---------
E|------------------------------------------------

http://www.guitartabcreator.com
Guitar Tab Creator is intended to store guitar tab created through the tool. It currently does not support in-line text editing. Any text you place in here will be lost. If you need to comment on your tab, please use the "Tab Notes" section located below.