Sound will begin in 5 seconds

Moar 7/4

01234567891011121314151617181920212223
E
B
G
D
A
E
B
0 1 2 3 4 5 6 7 8 9 10 11 12 13 14 15 16 17 18 19 20 21 22 23
Song Science #1: How Pros Use 6 Chords to Write Hit Songs
(/) Slide Up  (\) Slide Down  (h) Hammer On  (p) Pull Off  (b) Bend (r) Release (v) Vibrato

Stave 1:

E|--------------------------------------------------
B|--------------------------------------------------
G|--------------------------------------------------
D|-----------------------------------5--------------
A|--------------5--7--------7--------------7--8-----
E|--0--0--0--0--------0--6-----0--0-----0--------8--

Stave 2:

E|--------------------------------------------------
B|--------------------------------------------------
G|--------------------------------------------------
D|--------------------------------------------------
A|--------------5--7--------------3--5--6--5--3-----
E|--0--0--0--0--------0--0--4--5-----------------4--

Stave 3:

E|--------------------------------------------------
B|--------------------------------------------------
G|--------------------------------------------------
D|--------------------------------------------------
A|--------------5--7--------7--------5--------------
E|--0--0--0--0--------0--6-----0--6-----6--5--3--0--

Stave 4:

E|-----------------------------------------------
B|-----------------------------------------------
G|-----------------------------------------------
D|-----------------------------------------------
A|-----------------------3--2-----------------6--
E|--0--0--6--0--5--0--3--------0----3----2-------

Stave 5:

E|----------------------------------------------
B|----------------------------------------------
G|----------------------------------------------
D|----------------------------------------------
A|--------6----7----------6--7--3---------------
E|--0--0------------0--0-------------0--0--4----

Stave 6:

E|-------------------------------------------------------
B|-------------------------------------------------------
G|-------------------------------------------------------
D|-------------------------------------------------------
A|--------6----7----------6--7--3------------------------
E|--0--0------------0--0-------------0--0--5----0--0--4--

Stave 7:

E|-----------------
B|-----------------
G|-----------------
D|-----------------
A|--6--7--4--3-----
E|--------------5--

Stave 8:

E|--------------------------------
B|--------------------------------
G|--------------------------------
D|--------------------------------
A|--6--7--4--3--6--7--4--3--------
E|--------------------------5--4--

Stave 9:

E|-----------------------
B|-----------------------
G|-----------------------
D|-----------------------
A|-----------------6-----
E|--0--2--6--0--7-----5--

Stave 10:

E|-----------------------------
B|-----------------------------
G|-----------------------------
D|-----------------------------
A|--0--4--6-----6--4-----------
E|-----------7--------5h7p5p3--

Stave 11:

E|-------------------------
B|-------------------------
G|-------------------------
D|-------4-----2-----------
A|----------3-----4--3--2--
E|--0h2--------------------

Stave 12:

E|------------------------
B|------------------------
G|------------------------
D|--7p4-----4--7p4-----4--
A|-------6----------7-----
E|------------------------

http://www.guitartabcreator.com
Guitar Tab Creator is intended to store guitar tab created through the tool. It currently does not support in-line text editing. Any text you place in here will be lost. If you need to comment on your tab, please use the "Tab Notes" section located below.