Sound will begin in 5 seconds

Intro in Dm

01234567891011121314151617181920212223
E
B
G
D
A
E
B
0 1 2 3 4 5 6 7 8 9 10 11 12 13 14 15 16 17 18 19 20 21 22 23
Song Science #1: How Pros Use 6 Chords to Write Hit Songs
(/) Slide Up  (\) Slide Down  (h) Hammer On  (p) Pull Off  (b) Bend (r) Release (v) Vibrato

Stave 1:

E|-----------5/8--8--10--8------12------8-------------------------------8----------------------------
B|--5--5--5-----------------10------10-----10-----------------------10-----10------------7-----------
G|--5--5--5------------------------------------9--10--9---------10-------------10-----8-----8--------
D|--7--7--7----------------------------------------------10--8---------------------7-----------7--5--
A|--8--8--8------------------------------------------------------------------------------------------
E|---------------------------------------------------------------------------------------------------

Stave 2:

E|------------------------------------------------------3-----3h4p3h4h6p4p3--------
B|--------------3--------------3h4p3--------------4--------4-----------------4-----
G|--------5--------5--------3---------3--------5-----5--------------------------3--
D|-----4-----4-----------5---------------5--6--------------------------------------
A|--5-----------------6------------------------------------------------------------
E|---------------------------------------------------------------------------------

Stave 3:

E|-----------------------------------------3-----6-----9-----------------------------------------9--
B|-----------3--4--3--4--6--4--3--------4-----4-----8-----8--------------6--------5--------8--------
G|--------3--3--5--3--5--7--5--3-----5-----------------------9--6--5-----------6--------9-----9-----
D|-----5--------------------------6-----------------------------------6-----5--------8--------------
A|--6-----------------------------------------------------------------------------------------------
E|--------------------------------------------------------------------------------------------------

Stave 4:

E|------------------12--
B|----------11----------
G|------12------12------
D|--11------------------
A|----------------------
E|----------------------

http://www.guitartabcreator.com
Guitar Tab Creator is intended to store guitar tab created through the tool. It currently does not support in-line text editing. Any text you place in here will be lost. If you need to comment on your tab, please use the "Tab Notes" section located below.