Sound will begin in 5 seconds

He's No Good To Me Dead Ending

01234567891011121314151617181920212223
E
B
G
D
A
E
B
0 1 2 3 4 5 6 7 8 9 10 11 12 13 14 15 16 17 18 19 20 21 22 23
Song Science #1: How Pros Use 6 Chords to Write Hit Songs
(/) Slide Up  (\) Slide Down  (h) Hammer On  (p) Pull Off  (b) Bend (r) Release (v) Vibrato

Stave 1:

E|--------------------------------------
B|--------------------------------------
G|--------------------------------------
D|--------------------------------------
A|--------------7--9--11----12p11p9h11--
E|--7----8--10--------------------------

Stave 2:

E|-------------------------------------------------
B|-------------------------------------------------
G|-----------------------------------9----9p8p6h8--
D|---------------7--9--10------10p9----------------
A|-----7--9--10------------------------------------
E|--8----------------------------------------------

Stave 3:

E|----------------------------------------------
B|----------------------------------------------
G|----------------------------------------------
D|----------------------------------------------
A|--------------7--9--11----10--12--13--12--10--
E|--7----8--10----------------------------------

Stave 4:

E|--------------------------------------------------
B|--------------------------------------------------
G|--------------------------------------------------
D|--------------------------------------12--13--14--
A|--------------7--9--11----10--12--13--------------
E|--7----8--10--------------------------------------

Stave 5:

E|--------------------------------------------------
B|--------------------------------------15--16--17--
G|--------------------------12--14--15--------------
D|--------------12--13--14--------------------------
A|--10--12--13--------------------------------------
E|--------------------------------------------------

http://www.guitartabcreator.com
Guitar Tab Creator is intended to store guitar tab created through the tool. It currently does not support in-line text editing. Any text you place in here will be lost. If you need to comment on your tab, please use the "Tab Notes" section located below.