Sound will begin in 5 seconds

Go Get'em Tiger

Chords
01234567891011121314151617181920212223
E
B
G
D
A
E
B
0 1 2 3 4 5 6 7 8 9 10 11 12 13 14 15 16 17 18 19 20 21 22 23
Song Science #1: How Pros Use 6 Chords to Write Hit Songs
(/) Slide Up  (\) Slide Down  (h) Hammer On  (p) Pull Off  (b) Bend (r) Release (v) Vibrato

Stave 1:

E|----------------21p17--------------17--20p16----------
B|-----------------------19------19-------------18------
G|---------------------------18---------------------17--
D|----4--4--4--4----------------------------------------
A|----3--3--3--3----------------------------------------
E|----2--2--2--2----------------------------------------

Stave 2:

E|-----------------------------------------------
B|----------------15p10p7--14p10p7--17p10p7--13--
G|----5--5--5--5---------------------------------
D|----4--4--4--4---------------------------------
A|----3--3--3--3---------------------------------
E|-----------------------------------------------

Stave 3:

E|----------------------------------
B|--12p10p9----------10p9p7---------
G|-----------11p9p7----------9p7p6--
D|----------------------------------
A|----------------------------------
E|----------------------------------

Stave 4:

E|--------------------------------------
B|--------------------------------------
G|--------------------------------------
D|--9--9--9--6--6--6--------------------
A|--------------------9--9--9--8--8--8--
E|--------------------------------------

Stave 5:

E|------------------------------------------------------------------------------
B|-------------------------------------------------------------9--6--10--7--11--
G|---------------------6--9--7--6-----------------9--6--11--7-------------------
D|--7----6----------7--------------9--7--6--------------------------------------
A|----------7----9--------------------------9--7--------------------------------
E|------------------------------------------------------------------------------

Stave 6:

E|---------------------5--9--7--5------------------------------9--5--10--5--5--
B|------------------7--------------9--7--5--------9--5--10--7------------------
G|--7----9--6----6--------------------------7--6-------------------------------
D|-----------------------------------------------------------------------------
A|-----------------------------------------------------------------------------
E|-----------------------------------------------------------------------------

http://www.guitartabcreator.com
Guitar Tab Creator is intended to store guitar tab created through the tool. It currently does not support in-line text editing. Any text you place in here will be lost. If you need to comment on your tab, please use the "Tab Notes" section located below.