Sound will begin in 5 seconds

Get That Money Solo + Riffs

Chords
01234567891011121314151617181920212223
E
B
G
D
A
E
B
0 1 2 3 4 5 6 7 8 9 10 11 12 13 14 15 16 17 18 19 20 21 22 23
Song Science #1: How Pros Use 6 Chords to Write Hit Songs
(/) Slide Up  (\) Slide Down  (h) Hammer On  (p) Pull Off  (b) Bend (r) Release (v) Vibrato

Stave 1:

E|-------------------------------------------------------------------12---------
B|--------------13--13-------------13/15-----------------------------13--13--13-
G|-------9--10--------------9--10--------14-12---------------17--14------12--14-
D|----10---------------------------------------14-15-----15--14-----------------
A|-12------------------------------------------------15--12------15-------------
E|------------------------------------------------------------------------------

Stave 2:

E|--------12-17-15-13-15-------17-------------------------------
B|-----13----------------17-15----15-14\13----------------------
G|--14-------------------------------------14-13-12----------14-
D|--------------------------------------------------14-13-12-15-
A|--------------------------------------------------------------
E|--------------------------------------------------------------

Stave 3:

E|-------------------------------------------------------------------------------------
B|-------------------------------------------------------------------------------------
G|----------9-10-9----14-9----17-14-------15-14\12----12\10----10\9--------------------
D|-----10-8--------10------12-------15-14----------14-------12------10-12-10-8-7b8r7-8-
A|-8-7---------------------------------------------------------------------------------
E|-------------------------------------------------------------------------------------

Stave 4:

E|------------------------------------------------------
B|------------------------------------13----------------
G|----------9-------9-10-12-14-------------14--12-14-12-
D|-10-----------10--------------------------------------
A|------8------------------------13---------------------
E|------------------------------------------------------

Stave 5:

E|--------------8/10-13--12----------------10--------------------
B|-6---8/10-6----------------13---10-11-13----13-11-10---6---8-5-
G|---7--------7--------------------------------------------7-----
D|---------------------------------------------------------------
A|---------------------------------------------------------------
E|---------------------------------------------------------------

Stave 6:

E|--------------8/10-13--12--10---------------10------------------------
B|-6---8/10-6--------------------13--10-11-13----13-11-10---------------
G|---7--------7-------------------------------------------12-10-12-9-10-
D|----------------------------------------------------------------------
A|----------------------------------------------------------------------
E|----------------------------------------------------------------------

http://www.guitartabcreator.com
Guitar Tab Creator is intended to store guitar tab created through the tool. It currently does not support in-line text editing. Any text you place in here will be lost. If you need to comment on your tab, please use the "Tab Notes" section located below.