Sound will begin in 5 seconds

Andy's Amity Harbor Solo

01234567891011121314151617181920212223
E
B
G
D
A
E
B
0 1 2 3 4 5 6 7 8 9 10 11 12 13 14 15 16 17 18 19 20 21 22 23
(/) Slide Up  (\) Slide Down  (h) Hammer On  (p) Pull Off  (b) Bend (r) Release (v) Vibrato

Stave 1:

E|----15-19-17-15-------------------------
B|-17-------------19-17-15----------------
G|-------------------------19-17-16-17-16-
D|----------------------------------------
A|----------------------------------------
E|----------------------------------------

Stave 2:

E|-------------------------------------------------------------------------------------15h17h19-19-
B|----------------------------------------------------------------------------15h17h19-------------
G|-19b21----19-17-19----17-16-17-16----16----16----------------------16h17h19----------------------
D|----------------------------------19----19----19-17-16----16h17h19-------------------------------
A|-------------------------------------------------------------------------------------------------
E|-------------------------------------------------------------------------------------------------

Stave 3:

E|-------15-19-------15-19-------15-19-------15-19-------17-20-------17-20-------17-20-------17-20-
B|-15-17-------15-17-------15-17-------15-17-------17-19-------17-19-------17-19-------17-19-------
G|-------------------------------------------------------------------------------------------------
D|-------------------------------------------------------------------------------------------------
A|-------------------------------------------------------------------------------------------------
E|-------------------------------------------------------------------------------------------------

Stave 4:

E|-22b23----22-20-19-20-19----19-------------------------19-
B|-------------------------22----22-20-19-16h17p16h17p16----
G|----------------------------------------------------------
D|----------------------------------------------------------
A|----------------------------------------------------------
E|----------------------------------------------------------

Stave 5:

E|-------------------------------------12-15p12-------------------
B|-12-13-12----12-13-12-------------12----------15p12-13p12-------
G|----------14----------14-12-14b16-------------------------14p12-
D|----------------------------------------------------------------
A|----------------------------------------------------------------
E|----------------------------------------------------------------

Stave 6:

E|-------------------------15-14----
B|-13-12----12-13-17-15-17-------17-
G|-------14-------------------------
D|----------------------------------
A|----------------------------------
E|----------------------------------

http://www.guitartabcreator.com
Guitar Tab Creator is intended to store guitar tab created through the tool. It currently does not support in-line text editing. Any text you place in here will be lost. If you need to comment on your tab, please use the "Tab Notes" section located below.