Sound will begin in 5 seconds

Malaysia lead

01234567891011121314151617181920212223
E
B
G
D
A
E
B
0 1 2 3 4 5 6 7 8 9 10 11 12 13 14 15 16 17 18 19 20 21 22 23
Song Science #1: How Pros Use 6 Chords to Write Hit Songs
(/) Slide Up  (\) Slide Down  (h) Hammer On  (p) Pull Off  (b) Bend (r) Release (v) Vibrato

Stave 1:

E|-------------------------------------------------------------------------
A|-------------------------------------------------------------------------
G|---------------------------------------------------------------------12--
C|-----------2--5--2--2--9--9--------7--9--0--0--7--9--------7--9--12------
A|--0--0--0--------------------0--0--------------------0--0----------------
D|-------------------------------------------------------------------------

Stave 2:

E|-----------------------------------------------------
A|-----------------------------------------------------
G|-----------------------------------------------------
C|-----------2--5--2--2--7--7--------7--9--0--0--7--9--
A|--0--0--0--------------------0--0--------------------
D|-----------------------------------------------------

Stave 3:

E|-----------------------------------------------------------------------------
A|-----------3--------------3--------------------3--------3--------------3-----
G|-----0--------0-----0--------0-----0-----0--------0--------0-----0--------0--
C|--5-----5--------5-----5--------5-----5-----5--------5--------5-----5--------
A|-----------------------------------------------------------------------------
D|-----------------------------------------------------------------------------

Stave 4:

E|-----------------------------------------------------------------------------------
A|-----------3--------------3--------------3-----------------3--------------3--------
G|-----0--------0-----0--------0-----0--------0--------2--------2-----2--------2-----
C|--5-----5--------5-----5--------5-----5--------5--2-----2--------2-----2--------2--
A|-----------------------------------------------------------------------------------
D|-----------------------------------------------------------------------------------

Stave 5:

E|--------------------------------------------------
A|-----------3--------------3--------------3--------
G|-----2--------2-----2--------2-----2--------2-----
C|--4-----4--------4-----4--------4-----4--------4--
A|--------------------------------------------------
D|--------------------------------------------------

Stave 6:

E|--------------------------------------------------
A|-----------7--------------7--------------7--------
G|-----5--------5-----5--------5-----5--------5-----
C|--7-----7--------7-----7--------7-----7--------7--
A|--------------------------------------------------
D|--------------------------------------------------

Stave 7:

E|----------------------------------
A|--12--------------12--------------
G|------12--------------12----------
C|----------12--14----------12--14--
A|----------------------------------
D|----------------------------------

Stave 8:

E|--------------------------------------------------
A|--------------------------------------------------
G|-----------------------------------------------7--
C|--5--5--5--5--4--2--4--5--7--9--0--9--9--9--7-----
A|--------------------------------------------------
D|--------------------------------------------------

http://www.guitartabcreator.com
Guitar Tab Creator is intended to store guitar tab created through the tool. It currently does not support in-line text editing. Any text you place in here will be lost. If you need to comment on your tab, please use the "Tab Notes" section located below.