Sound will begin in 5 seconds

Masters' Ladder

01234567891011121314151617181920212223
E
B
G
D
A
E
B
0 1 2 3 4 5 6 7 8 9 10 11 12 13 14 15 16 17 18 19 20 21 22 23
Song Science #1: How Pros Use 6 Chords to Write Hit Songs
(/) Slide Up  (\) Slide Down  (h) Hammer On  (p) Pull Off  (b) Bend (r) Release (v) Vibrato

Capo Fret 5

Stave 1:

Eb|------12------------10---------10---------10---------10------------13---------------
Bb|----------0-------------0----------0----------0----------0-------------0------------
F |--13---------12------------12---------12---------12---------12/15---------15\10-----
C |------------------------------------------------------------------------------------
G |------------------------------------------------------------------------------------
C |------------------------------------------------------------------------------------

Stave 2:

Eb|--8---------8---------8---------8------------12--------------7--------7--------7--------7--------7-----
Bb|-----0---------0---------0---------0-------------0--------------0--------0--------0--------0--------0--
F |--------10--------10--------10--------10/13---------13\8-----------8--------8--------8--------8--------
C |-------------------------------------------------------------------------------------------------------
G |-------------------------------------------------------------------------------------------------------
C |-------------------------------------------------------------------------------------------------------

Stave 3:

Eb|----------0--------0--------0--------------------
Bb|-------------0--------0--------6p0-----0h8p0-----
F |--6/7-----------7--------7----------7---------7--
C |-------------------------------------------------
G |-------------------------------------------------
C |-------------------------------------------------

http://www.guitartabcreator.com
Guitar Tab Creator is intended to store guitar tab created through the tool. It currently does not support in-line text editing. Any text you place in here will be lost. If you need to comment on your tab, please use the "Tab Notes" section located below.