Sound will begin in 5 seconds

Haunted

Chords
01234567891011121314151617181920212223
E
B
G
D
A
E
B
0 1 2 3 4 5 6 7 8 9 10 11 12 13 14 15 16 17 18 19 20 21 22 23
Song Science #1: How Pros Use 6 Chords to Write Hit Songs
(/) Slide Up  (\) Slide Down  (h) Hammer On  (p) Pull Off  (b) Bend (r) Release (v) Vibrato

Stave 1:

Eb|------------------------------------------------------------------------------------------------
Bb|------------------------------------------------------------------------------------------------
F |--9--7--9-----9--7--9-----9--7--9-----9--7--9-----9--7--9-----9--7--9-----9---------------------
C |-----------------------------------------------------------------------------8--8-----11-----4--
G |--0--------------------------------------------------------------------------8--8-----11-----4--
C |-----------------------------------------------------------------------------8--8-----11-----4--

Stave 2:

Eb|----------------------------------------------|---------------------
Bb|----------------------------------------------|---------------------
F |------------------------9h11p9---------12h14--|---------------------
C |-------7p6-----6--7/10----------10/13---------|--8--8-----11-----4--
G |--8p0-------7---------------------------------|--8--8-----11-----4--
C |----------------------------------------------|--8--8-----11-----4--

Stave 3:

Eb|-----------------------------------------------------------------------------|---------------------
Bb|-----------------------------------------------------------------------------|---------------------
F |--9--7--9-----9--7--9-----9---7---9------9---7---9------9--7--9-----9--7--9--|---------------------
C |--7--7--7-----7--7--7-----10--10--10-----10--10--10-----6--6--6-----6--6--6--|--8--8-----11-----4--
G |--0--0--0-----0--0--0-----0---0---0------0---0---0------0--0--0-----0--0--0--|--8--8-----11-----4--
C |-----------------------------------------------------------------------------|--8--8-----11-----4--

http://www.guitartabcreator.com
Guitar Tab Creator is intended to store guitar tab created through the tool. It currently does not support in-line text editing. Any text you place in here will be lost. If you need to comment on your tab, please use the "Tab Notes" section located below.