Sound will begin in 5 seconds

Enthroned/Enthralled

Chords
01234567891011121314151617181920212223
E
B
G
D
A
E
B
0 1 2 3 4 5 6 7 8 9 10 11 12 13 14 15 16 17 18 19 20 21 22 23
Song Science #1: How Pros Use 6 Chords to Write Hit Songs
(/) Slide Up  (\) Slide Down  (h) Hammer On  (p) Pull Off  (b) Bend (r) Release (v) Vibrato

Stave 1:

Eb|---------------------------------------------------14------|--
Bb|------------------------------0h15------15h20----------20--|--
F |---------0h16------16h19-----------------------------------|--
C |--17h18--------18---------18--------18---------18----------|--
G |-----------------------------------------------------------|--
C |-----------------------------------------------------------|--

Stave 2:

Eb|----------------------------------------------------------------------------------|--
Bb|--2p0--2p0--2p0--2p0--2p0--2p0--2p0--2p0--3p0--3p0--3p0--3p0--3p0--3p0--3p0--3p0--|--
F |----------------------------------------------------------------------------------|--
C |----------------------------------------------------------------------------------|--
G |--3---------------------------------------2---------------------------------------|--
C |----------------------------------------------------------------------------------|--

Stave 3:

Eb|--------
Bb|--------
F |--------
C |--------
G |--6--6--
C |--------

http://www.guitartabcreator.com
Guitar Tab Creator is intended to store guitar tab created through the tool. It currently does not support in-line text editing. Any text you place in here will be lost. If you need to comment on your tab, please use the "Tab Notes" section located below.