Sound will begin in 5 seconds

Ensign

Chords
01234567891011121314151617181920212223
E
B
G
D
A
E
B
0 1 2 3 4 5 6 7 8 9 10 11 12 13 14 15 16 17 18 19 20 21 22 23
Song Science #1: How Pros Use 6 Chords to Write Hit Songs
(/) Slide Up  (\) Slide Down  (h) Hammer On  (p) Pull Off  (b) Bend (r) Release (v) Vibrato

Stave 1:

Eb|-----------------8-----------------------8-----------------------8-----------------------8--------
Bb|--------9--------------9--------9--------------9--------9--------------9--------9--------------9--
F |--------------------------------------------------------------------------------------------------
C |--9--9--9--9--9--9--9--9--9--9--9--9--9--9--9--9--9--9--9--9--9--9--9--9--9--9--9--9--9--9--9--9--
G |--------------------------------------------------------------------------------------------------
C |--------------------------------------------------------------------------------------------------

Stave 2:

Eb|-----------------6-----------------------6-----------------------------------------------4--------
Bb|--------8--------------8--------8--------------8-----6-----8-----6-----8-----6-----8-----------8--
F |--------------------------------------------------------------------------------------------------
C |--7--7--7--7--7--7--7--7--7--7--7--7--7--7--7--7--7--7--7--7--7--7--7--7--7--7--7--7--7--7--7--7--
G |--------------------------------------------------------------------------------------------------
C |--------------------------------------------------------------------------------------------------

Stave 3:

Eb|-----------------4-----------------------4--------
Bb|--------6--------------6--------6--------------6--
F |--------------------------------------------------
C |--5--5--5--5--5--5--5--5--5--5--5--5--5--5--5--5--
G |--------------------------------------------------
C |--------------------------------------------------

Stave 4:

Eb|-----------------1-----------------------1--------
Bb|--------2--------------2--------2--------------2--
F |--------------------------------------------------
C |--4--4--4--4--4--4--4--4--4--4--4--4--4--4--4--4--
G |--------------------------------------------------
C |--------------------------------------------------

Stave 5:

Eb|-----------------0-----------0-----------0--------
Bb|--------1--------------1-----------1-----------1--
F |--------------------------------------------------
C |--3--3--3--3--3--3--3--3--3--3--3--3--3--3--3--3--
G |--------------------------------------------------
C |--------------------------------------------------

Stave 6:

Eb|--16--|--------------------------------
Bb|--14--|--------------------------------
F |--14--|-------------15-------------15--
C |--0---|--0--13--15------0--13--15------
G |--0---|--------------------------------
C |--0---|--------------------------------

http://www.guitartabcreator.com
Guitar Tab Creator is intended to store guitar tab created through the tool. It currently does not support in-line text editing. Any text you place in here will be lost. If you need to comment on your tab, please use the "Tab Notes" section located below.